ISO-10303-21;
HEADER;
FILE_DESCRIPTION (( 'STEP AP214' ),
    '1' );
FILE_NAME ('290000800.STEP',
    '2024-02-06T15:59:43',
    ( '' ),
    ( '' ),
    'SwSTEP 2.0',
    'SolidWorks 2020',
    '' );
FILE_SCHEMA (( 'AUTOMOTIVE_DESIGN' ));
ENDSEC;

DATA;
#1 = ADVANCED_FACE ( 'NONE', ( #95 ), #98, .F. ) ;
#2 =( NAMED_UNIT ( * ) SI_UNIT ( $, .STERADIAN. ) SOLID_ANGLE_UNIT ( ) );
#3 = AXIS2_PLACEMENT_3D ( 'NONE', #100, #260, #42 ) ;
#4 = CARTESIAN_POINT ( 'NONE',  ( 0.000000000000000000, 0.000000000000000000, 0.000000000000000000 ) ) ;
#5 = DIRECTION ( 'NONE',  ( 1.000000000000000000, 0.000000000000000000, 0.000000000000000000 ) ) ;
#6 = LINE ( 'NONE', #65, #35 ) ;
#7 = CARTESIAN_POINT ( 'NONE',  ( 44.99999999999998579, 15.00000000000001066, 7.500000000000000000 ) ) ;
#8 = ORIENTED_EDGE ( 'NONE', *, *, #71, .F. ) ;
#9 = PRODUCT ( '94173', '94173', '', ( #67 ) ) ;
#10 = ORIENTED_EDGE ( 'NONE', *, *, #86, .T. ) ;
#11 = PRODUCT_RELATED_PRODUCT_CATEGORY ( 'part', '', ( #113 ) ) ;
#12 = FACE_OUTER_BOUND ( 'NONE', #194, .T. ) ;
#13 = PRESENTATION_LAYER_ASSIGNMENT (  '', '', ( #178 ) ) ;
#14 = ORIENTED_EDGE ( 'NONE', *, *, #21, .T. ) ;
#15 = FACE_OUTER_BOUND ( 'NONE', #241, .T. ) ;
#16 = PRODUCT_DEFINITION_FORMATION_WITH_SPECIFIED_SOURCE ( 'ANY', '', #113, .NOT_KNOWN. ) ;
#17 = VERTEX_POINT ( 'NONE', #39 ) ;
#18 =( LENGTH_UNIT ( ) NAMED_UNIT ( * ) SI_UNIT ( .MILLI., .METRE. ) );
#19 = FACE_OUTER_BOUND ( 'NONE', #37, .T. ) ;
#20 = DIRECTION ( 'NONE',  ( -1.541976423090495387E-16, 1.000000000000000000, 0.000000000000000000 ) ) ;
#21 = EDGE_CURVE ( 'NONE', #78, #112, #80, .T. ) ;
#22 = AXIS2_PLACEMENT_3D ( 'NONE', #24, #190, #249 ) ;
#23 = SURFACE_SIDE_STYLE ('',( #128 ) ) ;
#24 = CARTESIAN_POINT ( 'NONE',  ( 0.000000000000000000, 0.000000000000000000, 0.000000000000000000 ) ) ;
#25 = CARTESIAN_POINT ( 'NONE',  ( -45.00000000000001421, -15.00000000000000355, 0.000000000000000000 ) ) ;
#26 = DIRECTION ( 'NONE',  ( 0.000000000000000000, 0.000000000000000000, 1.000000000000000000 ) ) ;
#27 = UNCERTAINTY_MEASURE_WITH_UNIT (LENGTH_MEASURE( 1.000000000000000082E-05 ), #208, 'distance_accuracy_value', 'NONE');
#28 = CARTESIAN_POINT ( 'NONE',  ( 44.99999999999998579, -14.99999999999998934, 0.000000000000000000 ) ) ;
#29 = VECTOR ( 'NONE', #40, 1000.000000000000000 ) ;
#30 = VERTEX_POINT ( 'NONE', #41 ) ;
#31 = EDGE_CURVE ( 'NONE', #30, #17, #106, .T. ) ;
#32 = ORIENTED_EDGE ( 'NONE', *, *, #147, .F. ) ;
#33 = PRODUCT_DEFINITION_SHAPE ( 'NONE', 'NONE',  #62 ) ;
#34 = CARTESIAN_POINT ( 'NONE',  ( -45.00000000000001421, -15.00000000000000355, 0.000000000000000000 ) ) ;
#35 = VECTOR ( 'NONE', #49, 1000.000000000000000 ) ;
#36 = FACE_OUTER_BOUND ( 'NONE', #110, .T. ) ;
#37 = EDGE_LOOP ( 'NONE', ( #72, #91, #215, #195 ) ) ;
#38 = DIRECTION ( 'NONE',  ( 0.000000000000000000, -0.000000000000000000, 1.000000000000000000 ) ) ;
#39 = CARTESIAN_POINT ( 'NONE',  ( -45.00000000000001421, 14.99999999999999645, 0.000000000000000000 ) ) ;
#40 = DIRECTION ( 'NONE',  ( 0.000000000000000000, 1.000000000000000000, 0.000000000000000000 ) ) ;
#41 = CARTESIAN_POINT ( 'NONE',  ( 44.99999999999998579, 15.00000000000001066, 0.000000000000000000 ) ) ;
#42 = DIRECTION ( 'NONE',  ( 1.000000000000000000, 0.000000000000000000, -0.000000000000000000 ) ) ;
#43 = APPLICATION_CONTEXT ( 'automotive_design' ) ;
#44 = LINE ( 'NONE', #242, #29 ) ;
#45 = PRODUCT_DEFINITION ( 'UNKNOWN', '', #216, #226 ) ;
#46 = CARTESIAN_POINT ( 'NONE',  ( 0.000000000000000000, 0.000000000000000000, 0.000000000000000000 ) ) ;
#47 = SHAPE_REPRESENTATION ( '94173', ( #75 ), #156 ) ;
#48 = PRESENTATION_STYLE_ASSIGNMENT (( #210 ) ) ;
#49 = DIRECTION ( 'NONE',  ( -0.000000000000000000, -0.000000000000000000, -1.000000000000000000 ) ) ;
#50 = VECTOR ( 'NONE', #192, 1000.000000000000000 ) ;
#51 = CARTESIAN_POINT ( 'NONE',  ( -45.00000000000001421, -15.00000000000000355, 7.500000000000000000 ) ) ;
#52 = ORIENTED_EDGE ( 'NONE', *, *, #21, .F. ) ;
#53 = EDGE_CURVE ( 'NONE', #112, #181, #6, .T. ) ;
#54 = PRODUCT_DEFINITION_SHAPE ( 'NONE', 'NONE',  #94 ) ;
#55 = ORIENTED_EDGE ( 'NONE', *, *, #53, .T. ) ;
#56 = PRODUCT_CONTEXT ( 'NONE', #43, 'mechanical' ) ;
#57 =( LENGTH_UNIT ( ) NAMED_UNIT ( * ) SI_UNIT ( .MILLI., .METRE. ) );
#58 = VERTEX_POINT ( 'NONE', #85 ) ;
#59 = LINE ( 'NONE', #162, #133 ) ;
#60 = DIRECTION ( 'NONE',  ( -0.000000000000000000, -1.000000000000000000, -0.000000000000000000 ) ) ;
#61 = SURFACE_SIDE_STYLE ('',( #99 ) ) ;
#62 = PRODUCT_DEFINITION ( 'UNKNOWN', '', #16, #87 ) ;
#63 = MECHANICAL_DESIGN_GEOMETRIC_PRESENTATION_REPRESENTATION (  '', ( #247 ), #188 ) ;
#64 = AXIS2_PLACEMENT_3D ( 'NONE', #170, #166, #66 ) ;
#65 = CARTESIAN_POINT ( 'NONE',  ( -45.00000000000001421, -15.00000000000000355, 7.500000000000000000 ) ) ;
#66 = DIRECTION ( 'NONE',  ( 1.000000000000000000, 0.000000000000000000, 0.000000000000000000 ) ) ;
#67 = PRODUCT_CONTEXT ( 'NONE', #207, 'mechanical' ) ;
#68 = DIRECTION ( 'NONE',  ( 0.000000000000000000, 1.000000000000000000, 0.000000000000000000 ) ) ;
#69 = APPLICATION_PROTOCOL_DEFINITION ( 'draft international standard', 'automotive_design', 1998, #74 ) ;
#70 = CARTESIAN_POINT ( 'NONE',  ( -45.00000000000001421, 14.99999999999999645, 7.500000000000000000 ) ) ;
#71 = EDGE_CURVE ( 'NONE', #232, #58, #252, .T. ) ;
#72 = ORIENTED_EDGE ( 'NONE', *, *, #127, .F. ) ;
#73 = PRODUCT ( '290000800', '290000800', '', ( #56 ) ) ;
#74 = APPLICATION_CONTEXT ( 'automotive_design' ) ;
#75 = AXIS2_PLACEMENT_3D ( 'NONE', #4, #102, #227 ) ;
#76 = FILL_AREA_STYLE ('',( #118 ) ) ;
#77 =( NAMED_UNIT ( * ) SI_UNIT ( $, .STERADIAN. ) SOLID_ANGLE_UNIT ( ) );
#78 = VERTEX_POINT ( 'NONE', #150 ) ;
#79 = DIRECTION ( 'NONE',  ( -0.000000000000000000, -0.000000000000000000, -1.000000000000000000 ) ) ;
#80 = LINE ( 'NONE', #161, #104 ) ;
#81 = DIRECTION ( 'NONE',  ( 1.000000000000000000, 0.000000000000000000, -0.000000000000000000 ) ) ;
#82 = AXIS2_PLACEMENT_3D ( 'NONE', #97, #264, #263 ) ;
#83 = SHAPE_REPRESENTATION ( '290000800', ( #64, #22 ), #140 ) ;
#84 = SHAPE_REPRESENTATION_RELATIONSHIP ( 'NONE' , 'NONE' ,  #47, #145 ) ;
#85 = CARTESIAN_POINT ( 'NONE',  ( 44.99999999999998579, -14.99999999999998934, 0.000000000000000000 ) ) ;
#86 = EDGE_CURVE ( 'NONE', #78, #17, #191, .T. ) ;
#87 = PRODUCT_DEFINITION_CONTEXT ( 'detailed design', #151, 'design' ) ;
#88 = PRODUCT_CONTEXT ( 'NONE', #74, 'mechanical' ) ;
#89 = LINE ( 'NONE', #173, #119 ) ;
#90 = VERTEX_POINT ( 'NONE', #7 ) ;
#91 = ORIENTED_EDGE ( 'NONE', *, *, #31, .F. ) ;
#92 = PLANE ( 'NONE',  #3 ) ;
#93 = COLOUR_RGB ( '',1.000000000000000000, 1.000000000000000000, 1.000000000000000000 ) ;
#94 = PRODUCT_DEFINITION ( 'UNKNOWN', '', #167, #244 ) ;
#95 = FACE_OUTER_BOUND ( 'NONE', #222, .T. ) ;
#96 =( GEOMETRIC_REPRESENTATION_CONTEXT ( 3 ) GLOBAL_UNCERTAINTY_ASSIGNED_CONTEXT ( ( #27 ) ) GLOBAL_UNIT_ASSIGNED_CONTEXT ( ( #208, #209, #2 ) ) REPRESENTATION_CONTEXT ( 'NONE', 'WORKASPACE' ) );
#97 = CARTESIAN_POINT ( 'NONE',  ( 44.99999999999998579, 15.00000000000001066, 7.500000000000000000 ) ) ;
#98 = PLANE ( 'NONE',  #164 ) ;
#99 = SURFACE_STYLE_FILL_AREA ( #239 ) ;
#100 = CARTESIAN_POINT ( 'NONE',  ( 0.000000000000000000, 0.000000000000000000, 7.500000000000000000 ) ) ;
#101 = COLOUR_RGB ( '',0.7529411764705882248, 0.7529411764705882248, 0.7529411764705882248 ) ;
#102 = DIRECTION ( 'NONE',  ( 0.000000000000000000, 0.000000000000000000, 1.000000000000000000 ) ) ;
#103 = FILL_AREA_STYLE ('',( #187 ) ) ;
#104 = VECTOR ( 'NONE', #60, 1000.000000000000000 ) ;
#105 = PRODUCT_RELATED_PRODUCT_CATEGORY ( 'part', '', ( #73 ) ) ;
#106 = LINE ( 'NONE', #228, #50 ) ;
#107 = AXIS2_PLACEMENT_3D ( 'NONE', #125, #20, #203 ) ;
#108 =( LENGTH_UNIT ( ) NAMED_UNIT ( * ) SI_UNIT ( .MILLI., .METRE. ) );
#109 = DIRECTION ( 'NONE',  ( 1.000000000000000000, 1.541976423090495387E-16, -0.000000000000000000 ) ) ;
#110 = EDGE_LOOP ( 'NONE', ( #14, #176, #204, #137 ) ) ;
#111 = APPLICATION_PROTOCOL_DEFINITION ( 'draft international standard', 'automotive_design', 1998, #151 ) ;
#112 = VERTEX_POINT ( 'NONE', #51 ) ;
#113 = PRODUCT ( '92013', '92013', '', ( #88 ) ) ;
#114 = APPLICATION_PROTOCOL_DEFINITION ( 'draft international standard', 'automotive_design', 1998, #157 ) ;
#115 = SURFACE_STYLE_FILL_AREA ( #76 ) ;
#116 = VECTOR ( 'NONE', #129, 1000.000000000000000 ) ;
#117 = EDGE_CURVE ( 'NONE', #58, #30, #132, .T. ) ;
#118 = FILL_AREA_STYLE_COLOUR ( '', #101 ) ;
#119 = VECTOR ( 'NONE', #257, 1000.000000000000000 ) ;
#120 = ORIENTED_EDGE ( 'NONE', *, *, #259, .F. ) ;
#121 = CARTESIAN_POINT ( 'NONE',  ( 44.99999999999998579, -14.99999999999998934, 7.500000000000000000 ) ) ;
#122 = AXIS2_PLACEMENT_3D ( 'NONE', #136, #38, #81 ) ;
#123 = ORIENTED_EDGE ( 'NONE', *, *, #86, .F. ) ;
#124 = MECHANICAL_DESIGN_GEOMETRIC_PRESENTATION_REPRESENTATION (  '', ( #146 ), #96 ) ;
#125 = CARTESIAN_POINT ( 'NONE',  ( 44.99999999999998579, -14.99999999999998934, 7.500000000000000000 ) ) ;
#126 = FACE_OUTER_BOUND ( 'NONE', #243, .T. ) ;
#127 = EDGE_CURVE ( 'NONE', #17, #181, #152, .T. ) ;
#128 = SURFACE_STYLE_FILL_AREA ( #103 ) ;
#129 = DIRECTION ( 'NONE',  ( -0.000000000000000000, -0.000000000000000000, -1.000000000000000000 ) ) ;
#130 = CLOSED_SHELL ( 'NONE', ( #1, #213, #175, #221, #184, #230 ) ) ;
#131 = UNCERTAINTY_MEASURE_WITH_UNIT (LENGTH_MEASURE( 1.000000000000000082E-05 ), #57, 'distance_accuracy_value', 'NONE');
#132 = LINE ( 'NONE', #251, #186 ) ;
#133 = VECTOR ( 'NONE', #79, 1000.000000000000000 ) ;
#134 = PRESENTATION_STYLE_ASSIGNMENT (( #183 ) ) ;
#135 = EDGE_CURVE ( 'NONE', #181, #58, #212, .T. ) ;
#136 = CARTESIAN_POINT ( 'NONE',  ( 0.000000000000000000, 0.000000000000000000, 0.000000000000000000 ) ) ;
#137 = ORIENTED_EDGE ( 'NONE', *, *, #147, .T. ) ;
#138 = DIRECTION ( 'NONE',  ( 1.000000000000000000, 1.541976423090495387E-16, -0.000000000000000000 ) ) ;
#139 = ORIENTED_EDGE ( 'NONE', *, *, #71, .T. ) ;
#140 =( GEOMETRIC_REPRESENTATION_CONTEXT ( 3 ) GLOBAL_UNCERTAINTY_ASSIGNED_CONTEXT ( ( #160 ) ) GLOBAL_UNIT_ASSIGNED_CONTEXT ( ( #108, #148, #169 ) ) REPRESENTATION_CONTEXT ( 'NONE', 'WORKASPACE' ) );
#141 =( NAMED_UNIT ( * ) PLANE_ANGLE_UNIT ( ) SI_UNIT ( $, .RADIAN. ) );
#142 = CARTESIAN_POINT ( 'NONE',  ( 44.99999999999998579, -14.99999999999998934, 7.500000000000000000 ) ) ;
#143 = PRODUCT_DEFINITION_SHAPE ( 'NONE', 'NONE',  #265 ) ;
#144 = PRESENTATION_LAYER_ASSIGNMENT (  '', '', ( #247 ) ) ;
#145 = ADVANCED_BREP_SHAPE_REPRESENTATION ( '', ( #149, #75 ), #156 ) ;
#146 = STYLED_ITEM ( 'NONE', ( #48 ), #145 ) ;
#147 = EDGE_CURVE ( 'NONE', #90, #78, #89, .T. ) ;
#148 =( NAMED_UNIT ( * ) PLANE_ANGLE_UNIT ( ) SI_UNIT ( $, .RADIAN. ) );
#149 = MANIFOLD_SOLID_BREP ( 'Aufsatz-Linear austragen1', #130 ) ;
#150 = CARTESIAN_POINT ( 'NONE',  ( -45.00000000000001421, 14.99999999999999645, 7.500000000000000000 ) ) ;
#151 = APPLICATION_CONTEXT ( 'automotive_design' ) ;
#152 = LINE ( 'NONE', #25, #253 ) ;
#153 = SHAPE_DEFINITION_REPRESENTATION ( #235, #47 ) ;
#154 = MECHANICAL_DESIGN_GEOMETRIC_PRESENTATION_REPRESENTATION (  '', ( #178 ), #214 ) ;
#155 = ORIENTED_EDGE ( 'NONE', *, *, #53, .F. ) ;
#156 =( GEOMETRIC_REPRESENTATION_CONTEXT ( 3 ) GLOBAL_UNCERTAINTY_ASSIGNED_CONTEXT ( ( #168 ) ) GLOBAL_UNIT_ASSIGNED_CONTEXT ( ( #18, #141, #246 ) ) REPRESENTATION_CONTEXT ( 'NONE', 'WORKASPACE' ) );
#157 = APPLICATION_CONTEXT ( 'automotive_design' ) ;
#158 = DIRECTION ( 'NONE',  ( -1.000000000000000000, 0.000000000000000000, 0.000000000000000000 ) ) ;
#159 = ORIENTED_EDGE ( 'NONE', *, *, #240, .F. ) ;
#160 = UNCERTAINTY_MEASURE_WITH_UNIT (LENGTH_MEASURE( 1.000000000000000082E-05 ), #108, 'distance_accuracy_value', 'NONE');
#161 = CARTESIAN_POINT ( 'NONE',  ( -45.00000000000001421, -15.00000000000000355, 7.500000000000000000 ) ) ;
#162 = CARTESIAN_POINT ( 'NONE',  ( 44.99999999999998579, 15.00000000000001066, 7.500000000000000000 ) ) ;
#163 = FILL_AREA_STYLE_COLOUR ( '', #93 ) ;
#164 = AXIS2_PLACEMENT_3D ( 'NONE', #224, #180, #261 ) ;
#165 = VECTOR ( 'NONE', #138, 1000.000000000000000 ) ;
#166 = DIRECTION ( 'NONE',  ( 0.000000000000000000, 0.000000000000000000, 1.000000000000000000 ) ) ;
#167 = PRODUCT_DEFINITION_FORMATION_WITH_SPECIFIED_SOURCE ( 'ANY', '', #73, .NOT_KNOWN. ) ;
#168 = UNCERTAINTY_MEASURE_WITH_UNIT (LENGTH_MEASURE( 1.000000000000000082E-05 ), #18, 'distance_accuracy_value', 'NONE');
#169 =( NAMED_UNIT ( * ) SI_UNIT ( $, .STERADIAN. ) SOLID_ANGLE_UNIT ( ) );
#170 = CARTESIAN_POINT ( 'NONE',  ( 0.000000000000000000, 0.000000000000000000, 0.000000000000000000 ) ) ;
#171 = CARTESIAN_POINT ( 'NONE',  ( 44.99999999999998579, -14.99999999999998934, 7.500000000000000000 ) ) ;
#172 = ITEM_DEFINED_TRANSFORMATION ( 'NONE', 'NONE', #22,  #75 ) ;
#173 = CARTESIAN_POINT ( 'NONE',  ( 44.99999999999998579, 15.00000000000001066, 7.500000000000000000 ) ) ;
#174 = ORIENTED_EDGE ( 'NONE', *, *, #117, .T. ) ;
#175 = ADVANCED_FACE ( 'NONE', ( #12 ), #258, .F. ) ;
#176 = ORIENTED_EDGE ( 'NONE', *, *, #193, .T. ) ;
#177 = PRESENTATION_STYLE_ASSIGNMENT (( #238 ) ) ;
#178 = STYLED_ITEM ( 'NONE', ( #177 ), #149 ) ;
#179 = AXIS2_PLACEMENT_3D ( 'NONE', #46, #26, #5 ) ;
#180 = DIRECTION ( 'NONE',  ( 1.000000000000000000, 0.000000000000000000, 0.000000000000000000 ) ) ;
#181 = VERTEX_POINT ( 'NONE', #34 ) ;
#182 =( NAMED_UNIT ( * ) SI_UNIT ( $, .STERADIAN. ) SOLID_ANGLE_UNIT ( ) );
#183 = SURFACE_STYLE_USAGE ( .BOTH. , #61 ) ;
#184 = ADVANCED_FACE ( 'NONE', ( #36 ), #92, .T. ) ;
#185 = PRODUCT_RELATED_PRODUCT_CATEGORY ( 'part', '', ( #9 ) ) ;
#186 = VECTOR ( 'NONE', #68, 1000.000000000000000 ) ;
#187 = FILL_AREA_STYLE_COLOUR ( '', #248 ) ;
#188 =( GEOMETRIC_REPRESENTATION_CONTEXT ( 3 ) GLOBAL_UNCERTAINTY_ASSIGNED_CONTEXT ( ( #202 ) ) GLOBAL_UNIT_ASSIGNED_CONTEXT ( ( #225, #262, #182 ) ) REPRESENTATION_CONTEXT ( 'NONE', 'WORKASPACE' ) );
#189 = PRESENTATION_LAYER_ASSIGNMENT (  '', '', ( #146 ) ) ;
#190 = DIRECTION ( 'NONE',  ( 0.000000000000000000, 0.000000000000000000, 1.000000000000000000 ) ) ;
#191 = LINE ( 'NONE', #70, #116 ) ;
#192 = DIRECTION ( 'NONE',  ( -1.000000000000000000, -1.541976423090495387E-16, 0.000000000000000000 ) ) ;
#193 = EDGE_CURVE ( 'NONE', #112, #232, #206, .T. ) ;
#194 = EDGE_LOOP ( 'NONE', ( #174, #120, #159, #139 ) ) ;
#195 = ORIENTED_EDGE ( 'NONE', *, *, #135, .F. ) ;
#196 = APPLICATION_PROTOCOL_DEFINITION ( 'draft international standard', 'automotive_design', 1998, #218 ) ;
#197 = SURFACE_SIDE_STYLE ('',( #115 ) ) ;
#198 = VECTOR ( 'NONE', #211, 1000.000000000000000 ) ;
#199 = CARTESIAN_POINT ( 'NONE',  ( 44.99999999999998579, -14.99999999999998934, 7.500000000000000000 ) ) ;
#200 = ORIENTED_EDGE ( 'NONE', *, *, #31, .T. ) ;
#201 = AXIS2_PLACEMENT_3D ( 'NONE', #199, #158, #219 ) ;
#202 = UNCERTAINTY_MEASURE_WITH_UNIT (LENGTH_MEASURE( 1.000000000000000082E-05 ), #225, 'distance_accuracy_value', 'NONE');
#203 = DIRECTION ( 'NONE',  ( -1.000000000000000000, -1.541976423090495387E-16, 0.000000000000000000 ) ) ;
#204 = ORIENTED_EDGE ( 'NONE', *, *, #240, .T. ) ;
#205 = PLANE ( 'NONE',  #82 ) ;
#206 = LINE ( 'NONE', #142, #165 ) ;
#207 = APPLICATION_CONTEXT ( 'automotive_design' ) ;
#208 =( LENGTH_UNIT ( ) NAMED_UNIT ( * ) SI_UNIT ( .MILLI., .METRE. ) );
#209 =( NAMED_UNIT ( * ) PLANE_ANGLE_UNIT ( ) SI_UNIT ( $, .RADIAN. ) );
#210 = SURFACE_STYLE_USAGE ( .BOTH. , #23 ) ;
#211 = DIRECTION ( 'NONE',  ( -0.000000000000000000, -0.000000000000000000, -1.000000000000000000 ) ) ;
#212 = LINE ( 'NONE', #28, #231 ) ;
#213 = ADVANCED_FACE ( 'NONE', ( #126 ), #220, .F. ) ;
#214 =( GEOMETRIC_REPRESENTATION_CONTEXT ( 3 ) GLOBAL_UNCERTAINTY_ASSIGNED_CONTEXT ( ( #131 ) ) GLOBAL_UNIT_ASSIGNED_CONTEXT ( ( #57, #237, #77 ) ) REPRESENTATION_CONTEXT ( 'NONE', 'WORKASPACE' ) );
#215 = ORIENTED_EDGE ( 'NONE', *, *, #117, .F. ) ;
#216 = PRODUCT_DEFINITION_FORMATION_WITH_SPECIFIED_SOURCE ( 'ANY', '', #9, .NOT_KNOWN. ) ;
#217 = ORIENTED_EDGE ( 'NONE', *, *, #127, .T. ) ;
#218 = APPLICATION_CONTEXT ( 'automotive_design' ) ;
#219 = DIRECTION ( 'NONE',  ( 0.000000000000000000, 0.000000000000000000, 1.000000000000000000 ) ) ;
#220 = PLANE ( 'NONE',  #107 ) ;
#221 = ADVANCED_FACE ( 'NONE', ( #15 ), #205, .F. ) ;
#222 = EDGE_LOOP ( 'NONE', ( #217, #155, #52, #10 ) ) ;
#223 = APPLICATION_PROTOCOL_DEFINITION ( 'draft international standard', 'automotive_design', 1998, #43 ) ;
#224 = CARTESIAN_POINT ( 'NONE',  ( -45.00000000000001421, -15.00000000000000355, 7.500000000000000000 ) ) ;
#225 =( LENGTH_UNIT ( ) NAMED_UNIT ( * ) SI_UNIT ( .MILLI., .METRE. ) );
#226 = PRODUCT_DEFINITION_CONTEXT ( 'detailed design', #157, 'design' ) ;
#227 = DIRECTION ( 'NONE',  ( 1.000000000000000000, 0.000000000000000000, 0.000000000000000000 ) ) ;
#228 = CARTESIAN_POINT ( 'NONE',  ( 44.99999999999998579, 15.00000000000001066, 0.000000000000000000 ) ) ;
#229 = DIRECTION ( 'NONE',  ( -0.000000000000000000, -1.000000000000000000, -0.000000000000000000 ) ) ;
#230 = ADVANCED_FACE ( 'NONE', ( #19 ), #245, .F. ) ;
#231 = VECTOR ( 'NONE', #109, 1000.000000000000000 ) ;
#232 = VERTEX_POINT ( 'NONE', #121 ) ;
#233 = CONTEXT_DEPENDENT_SHAPE_REPRESENTATION ( #250, #143 ) ;
#234 = ORIENTED_EDGE ( 'NONE', *, *, #135, .T. ) ;
#235 = PRODUCT_DEFINITION_SHAPE ( 'NONE', 'NONE',  #45 ) ;
#236 = SHAPE_DEFINITION_REPRESENTATION ( #54, #83 ) ;
#237 =( NAMED_UNIT ( * ) PLANE_ANGLE_UNIT ( ) SI_UNIT ( $, .RADIAN. ) );
#238 = SURFACE_STYLE_USAGE ( .BOTH. , #197 ) ;
#239 = FILL_AREA_STYLE ('',( #163 ) ) ;
#240 = EDGE_CURVE ( 'NONE', #232, #90, #44, .T. ) ;
#241 = EDGE_LOOP ( 'NONE', ( #200, #123, #32, #254 ) ) ;
#242 = CARTESIAN_POINT ( 'NONE',  ( 44.99999999999998579, -14.99999999999998934, 7.500000000000000000 ) ) ;
#243 = EDGE_LOOP ( 'NONE', ( #234, #8, #256, #55 ) ) ;
#244 = PRODUCT_DEFINITION_CONTEXT ( 'detailed design', #218, 'design' ) ;
#245 = PLANE ( 'NONE',  #122 ) ;
#246 =( NAMED_UNIT ( * ) SI_UNIT ( $, .STERADIAN. ) SOLID_ANGLE_UNIT ( ) );
#247 = STYLED_ITEM ( 'NONE', ( #134 ), #230 ) ;
#248 = COLOUR_RGB ( '',0.7529411764705882248, 0.7529411764705882248, 0.7529411764705882248 ) ;
#249 = DIRECTION ( 'NONE',  ( 1.000000000000000000, 0.000000000000000000, 0.000000000000000000 ) ) ;
#250 =( REPRESENTATION_RELATIONSHIP ('NONE','NONE', #83, #47 ) REPRESENTATION_RELATIONSHIP_WITH_TRANSFORMATION ( #172 )SHAPE_REPRESENTATION_RELATIONSHIP( ) );
#251 = CARTESIAN_POINT ( 'NONE',  ( 44.99999999999998579, -14.99999999999998934, 0.000000000000000000 ) ) ;
#252 = LINE ( 'NONE', #171, #198 ) ;
#253 = VECTOR ( 'NONE', #229, 1000.000000000000000 ) ;
#254 = ORIENTED_EDGE ( 'NONE', *, *, #259, .T. ) ;
#255 = APPLICATION_PROTOCOL_DEFINITION ( 'draft international standard', 'automotive_design', 1998, #207 ) ;
#256 = ORIENTED_EDGE ( 'NONE', *, *, #193, .F. ) ;
#257 = DIRECTION ( 'NONE',  ( -1.000000000000000000, -1.541976423090495387E-16, 0.000000000000000000 ) ) ;
#258 = PLANE ( 'NONE',  #201 ) ;
#259 = EDGE_CURVE ( 'NONE', #90, #30, #59, .T. ) ;
#260 = DIRECTION ( 'NONE',  ( 0.000000000000000000, -0.000000000000000000, 1.000000000000000000 ) ) ;
#261 = DIRECTION ( 'NONE',  ( 0.000000000000000000, 0.000000000000000000, -1.000000000000000000 ) ) ;
#262 =( NAMED_UNIT ( * ) PLANE_ANGLE_UNIT ( ) SI_UNIT ( $, .RADIAN. ) );
#263 = DIRECTION ( 'NONE',  ( 1.000000000000000000, 1.541976423090495387E-16, 0.000000000000000000 ) ) ;
#264 = DIRECTION ( 'NONE',  ( 1.541976423090495387E-16, -1.000000000000000000, 0.000000000000000000 ) ) ;
#265 = NEXT_ASSEMBLY_USAGE_OCCURRENCE ( 'NAUO1', ' ', ' ', #94, #45, $ ) ;
ENDSEC;
END-ISO-10303-21;
