ISO-10303-21;
HEADER;
FILE_DESCRIPTION (( 'STEP AP214' ),
    '1' );
FILE_NAME ('27030380.STEP',
    '2008-10-02T08:51:59',
    ( 'baramundi Management Suite Install User' ),
    ( 'ROSE Systemtechnik GmbH' ),
    'SwSTEP 2.0',
    'SolidWorks 2008',
    '' );
FILE_SCHEMA (( 'AUTOMOTIVE_DESIGN' ));
ENDSEC;

DATA;
#1 = VERTEX_POINT ( 'NONE', #199 ) ;
#2 = APPLICATION_CONTEXT ( 'automotive_design' ) ;
#3 = APPLICATION_PROTOCOL_DEFINITION ( 'draft international standard', 'automotive_design', 1998, #2 ) ;
#4 = EDGE_LOOP ( 'NONE', ( #30, #33, #35, #36 ) ) ;
#5 = EDGE_CURVE ( 'NONE', #1, #64, #147, .T. ) ;
#6 = EDGE_CURVE ( 'NONE', #1, #54, #143, .T. ) ;
#7 = ORIENTED_EDGE ( 'NONE', *, *, #6, .T. ) ;
#8 = PRODUCT_CONTEXT ( 'NONE', #9, 'mechanical' ) ;
#9 = APPLICATION_CONTEXT ( 'automotive_design' ) ;
#10 = APPLICATION_PROTOCOL_DEFINITION ( 'draft international standard', 'automotive_design', 1998, #9 ) ;
#11 = ORIENTED_EDGE ( 'NONE', *, *, #41, .F. ) ;
#12 = EDGE_CURVE ( 'NONE', #19, #24, #139, .T. ) ;
#13 = EDGE_CURVE ( 'NONE', #19, #59, #135, .T. ) ;
#14 = ADVANCED_FACE ( 'NONE', ( #131 ), #129, .T. ) ;
#15 = ADVANCED_FACE ( 'NONE', ( #124 ), #130, .T. ) ;
#16 = CLOSED_SHELL ( 'NONE', ( #39, #42, #46, #37, #14, #15 ) ) ;
#17 = EDGE_CURVE ( 'NONE', #32, #19, #122, .T. ) ;
#18 = PRODUCT ( '27030380', '27030380', '', ( #8 ) ) ;
#19 = VERTEX_POINT ( 'NONE', #113 ) ;
#20 = EDGE_LOOP ( 'NONE', ( #58, #25, #7, #21 ) ) ;
#21 = ORIENTED_EDGE ( 'NONE', *, *, #41, .T. ) ;
#22 = ORIENTED_EDGE ( 'NONE', *, *, #44, .F. ) ;
#23 = ORIENTED_EDGE ( 'NONE', *, *, #31, .T. ) ;
#24 = VERTEX_POINT ( 'NONE', #115 ) ;
#25 = ORIENTED_EDGE ( 'NONE', *, *, #5, .F. ) ;
#26 = ORIENTED_EDGE ( 'NONE', *, *, #17, .F. ) ;
#27 = ORIENTED_EDGE ( 'NONE', *, *, #12, .T. ) ;
#28 = ORIENTED_EDGE ( 'NONE', *, *, #40, .T. ) ;
#29 = VERTEX_POINT ( 'NONE', #114 ) ;
#30 = ORIENTED_EDGE ( 'NONE', *, *, #31, .F. ) ;
#31 = EDGE_CURVE ( 'NONE', #32, #64, #198, .T. ) ;
#32 = VERTEX_POINT ( 'NONE', #194 ) ;
#33 = ORIENTED_EDGE ( 'NONE', *, *, #34, .F. ) ;
#34 = EDGE_CURVE ( 'NONE', #29, #32, #193, .T. ) ;
#35 = ORIENTED_EDGE ( 'NONE', *, *, #45, .T. ) ;
#36 = ORIENTED_EDGE ( 'NONE', *, *, #5, .T. ) ;
#37 = ADVANCED_FACE ( 'NONE', ( #189 ), #188, .F. ) ;
#38 = MANIFOLD_SOLID_BREP ( 'NONE', #16 ) ;
#39 = ADVANCED_FACE ( 'NONE', ( #111 ), #110, .F. ) ;
#40 = EDGE_CURVE ( 'NONE', #64, #59, #109, .T. ) ;
#41 = EDGE_CURVE ( 'NONE', #54, #59, #101, .T. ) ;
#42 = ADVANCED_FACE ( 'NONE', ( #97 ), #95, .F. ) ;
#43 = EDGE_CURVE ( 'NONE', #24, #29, #96, .T. ) ;
#44 = EDGE_CURVE ( 'NONE', #24, #54, #87, .T. ) ;
#45 = EDGE_CURVE ( 'NONE', #29, #1, #83, .T. ) ;
#46 = ADVANCED_FACE ( 'NONE', ( #79 ), #78, .T. ) ;
#47 = ORIENTED_EDGE ( 'NONE', *, *, #43, .T. ) ;
#48 = ORIENTED_EDGE ( 'NONE', *, *, #34, .T. ) ;
#49 = ORIENTED_EDGE ( 'NONE', *, *, #17, .T. ) ;
#50 = EDGE_LOOP ( 'NONE', ( #47, #48, #49, #27 ) ) ;
#51 = EDGE_LOOP ( 'NONE', ( #62, #63, #11, #22 ) ) ;
#52 = ORIENTED_EDGE ( 'NONE', *, *, #44, .T. ) ;
#53 = ORIENTED_EDGE ( 'NONE', *, *, #45, .F. ) ;
#54 = VERTEX_POINT ( 'NONE', #73 ) ;
#55 = EDGE_LOOP ( 'NONE', ( #28, #57, #26, #23 ) ) ;
#56 = ORIENTED_EDGE ( 'NONE', *, *, #6, .F. ) ;
#57 = ORIENTED_EDGE ( 'NONE', *, *, #13, .F. ) ;
#58 = ORIENTED_EDGE ( 'NONE', *, *, #40, .F. ) ;
#59 = VERTEX_POINT ( 'NONE', #72 ) ;
#60 = ORIENTED_EDGE ( 'NONE', *, *, #43, .F. ) ;
#61 = EDGE_LOOP ( 'NONE', ( #60, #52, #56, #53 ) ) ;
#62 = ORIENTED_EDGE ( 'NONE', *, *, #12, .F. ) ;
#63 = ORIENTED_EDGE ( 'NONE', *, *, #13, .T. ) ;
#64 = VERTEX_POINT ( 'NONE', #71 ) ;
#65 = ADVANCED_BREP_SHAPE_REPRESENTATION ( '', ( #38, #217 ), #66 ) ;
#66 =( GEOMETRIC_REPRESENTATION_CONTEXT ( 3 ) GLOBAL_UNCERTAINTY_ASSIGNED_CONTEXT ( ( #67 ) ) GLOBAL_UNIT_ASSIGNED_CONTEXT ( ( #70, #69, #68 ) ) REPRESENTATION_CONTEXT ( 'NONE', 'WORKASPACE' ) );
#67 = UNCERTAINTY_MEASURE_WITH_UNIT (LENGTH_MEASURE( 1.000000000000000100E-005 ), #70, 'distance_accuracy_value', 'NONE');
#68 =( NAMED_UNIT ( * ) SI_UNIT ( $, .STERADIAN. ) SOLID_ANGLE_UNIT ( ) );
#69 =( NAMED_UNIT ( * ) PLANE_ANGLE_UNIT ( ) SI_UNIT ( $, .RADIAN. ) );
#70 =( LENGTH_UNIT ( ) NAMED_UNIT ( * ) SI_UNIT ( .MILLI., .METRE. ) );
#71 = CARTESIAN_POINT ( 'NONE',  ( -1250.000000000000000, 3.000000000000000000, -425.5000000000000000 ) ) ;
#72 = CARTESIAN_POINT ( 'NONE',  ( -1250.000000000000000, 0.0000000000000000000, -425.5000000000000000 ) ) ;
#73 = CARTESIAN_POINT ( 'NONE',  ( -1250.000000000000000, 0.0000000000000000000, -625.0000000000000000 ) ) ;
#74 = DIRECTION ( 'NONE',  ( 0.0000000000000000000, -0.0000000000000000000, 1.000000000000000000 ) ) ;
#75 = DIRECTION ( 'NONE',  ( 0.0000000000000000000, 1.000000000000000000, 0.0000000000000000000 ) ) ;
#76 = CARTESIAN_POINT ( 'NONE',  ( -1250.000000000000000, 3.000000000000000000, 624.9999999999997700 ) ) ;
#77 = AXIS2_PLACEMENT_3D ( 'NONE', #76, #75, #74 ) ;
#78 = PLANE ( 'NONE',  #77 ) ;
#79 = FACE_OUTER_BOUND ( 'NONE', #4, .T. ) ;
#80 = DIRECTION ( 'NONE',  ( -1.000000000000000000, -0.0000000000000000000, -0.0000000000000000000 ) ) ;
#81 = VECTOR ( 'NONE', #80, 1000.000000000000000 ) ;
#82 = CARTESIAN_POINT ( 'NONE',  ( -1250.000000000000000, 3.000000000000000000, -625.0000000000000000 ) ) ;
#83 = LINE ( 'NONE', #82, #81 ) ;
#84 = DIRECTION ( 'NONE',  ( -1.000000000000000000, -0.0000000000000000000, -0.0000000000000000000 ) ) ;
#85 = VECTOR ( 'NONE', #84, 1000.000000000000000 ) ;
#86 = CARTESIAN_POINT ( 'NONE',  ( -1250.000000000000000, 0.0000000000000000000, -625.0000000000000000 ) ) ;
#87 = LINE ( 'NONE', #86, #85 ) ;
#88 = DIRECTION ( 'NONE',  ( 0.0000000000000000000, 1.000000000000000000, 0.0000000000000000000 ) ) ;
#89 = VECTOR ( 'NONE', #88, 1000.000000000000000 ) ;
#90 = CARTESIAN_POINT ( 'NONE',  ( -979.7999999999999500, 3.000000000000000000, -625.0000000000000000 ) ) ;
#91 = DIRECTION ( 'NONE',  ( 1.000000000000000000, 0.0000000000000000000, -0.0000000000000000000 ) ) ;
#92 = DIRECTION ( 'NONE',  ( 0.0000000000000000000, 0.0000000000000000000, 1.000000000000000000 ) ) ;
#93 = CARTESIAN_POINT ( 'NONE',  ( -1250.000000000000000, 3.000000000000000000, -625.0000000000000000 ) ) ;
#94 = AXIS2_PLACEMENT_3D ( 'NONE', #93, #92, #91 ) ;
#95 = PLANE ( 'NONE',  #94 ) ;
#96 = LINE ( 'NONE', #90, #89 ) ;
#97 = FACE_OUTER_BOUND ( 'NONE', #61, .T. ) ;
#98 = DIRECTION ( 'NONE',  ( 0.0000000000000000000, 0.0000000000000000000, 1.000000000000000000 ) ) ;
#99 = VECTOR ( 'NONE', #98, 1000.000000000000000 ) ;
#100 = CARTESIAN_POINT ( 'NONE',  ( -1250.000000000000000, 0.0000000000000000000, -625.0000000000000000 ) ) ;
#101 = LINE ( 'NONE', #100, #99 ) ;
#102 = DIRECTION ( 'NONE',  ( 0.0000000000000000000, -1.000000000000000000, 0.0000000000000000000 ) ) ;
#103 = VECTOR ( 'NONE', #102, 1000.000000000000000 ) ;
#104 = CARTESIAN_POINT ( 'NONE',  ( -1250.000000000000000, 3.000000000000000000, -425.5000000000000000 ) ) ;
#105 = DIRECTION ( 'NONE',  ( 0.0000000000000000000, 0.0000000000000000000, -1.000000000000000000 ) ) ;
#106 = DIRECTION ( 'NONE',  ( 1.000000000000000000, 0.0000000000000000000, 0.0000000000000000000 ) ) ;
#107 = CARTESIAN_POINT ( 'NONE',  ( -1250.000000000000000, 3.000000000000000000, -625.0000000000000000 ) ) ;
#108 = AXIS2_PLACEMENT_3D ( 'NONE', #107, #106, #105 ) ;
#109 = LINE ( 'NONE', #104, #103 ) ;
#110 = PLANE ( 'NONE',  #108 ) ;
#111 = FACE_OUTER_BOUND ( 'NONE', #20, .T. ) ;
#112 =( GEOMETRIC_REPRESENTATION_CONTEXT ( 3 ) GLOBAL_UNCERTAINTY_ASSIGNED_CONTEXT ( ( #170 ) ) GLOBAL_UNIT_ASSIGNED_CONTEXT ( ( #173, #172, #171 ) ) REPRESENTATION_CONTEXT ( 'NONE', 'WORKASPACE' ) );
#113 = CARTESIAN_POINT ( 'NONE',  ( -979.7999999999999500, 0.0000000000000000000, -425.5000000000000000 ) ) ;
#114 = CARTESIAN_POINT ( 'NONE',  ( -979.7999999999999500, 3.000000000000000000, -625.0000000000000000 ) ) ;
#115 = CARTESIAN_POINT ( 'NONE',  ( -979.7999999999999500, 0.0000000000000000000, -625.0000000000000000 ) ) ;
#116 = DIRECTION ( 'NONE',  ( 0.0000000000000000000, -1.000000000000000000, 0.0000000000000000000 ) ) ;
#117 = VECTOR ( 'NONE', #116, 1000.000000000000000 ) ;
#118 = CARTESIAN_POINT ( 'NONE',  ( -979.7999999999999500, 3.000000000000000000, -425.5000000000000000 ) ) ;
#119 = DIRECTION ( 'NONE',  ( 1.000000000000000000, 0.0000000000000000000, 0.0000000000000000000 ) ) ;
#120 = DIRECTION ( 'NONE',  ( -0.0000000000000000000, 0.0000000000000000000, 1.000000000000000000 ) ) ;
#121 = CARTESIAN_POINT ( 'NONE',  ( -1350.000000000000000, 3.000000000000000000, -425.5000000000000000 ) ) ;
#122 = LINE ( 'NONE', #118, #117 ) ;
#123 = AXIS2_PLACEMENT_3D ( 'NONE', #121, #120, #119 ) ;
#124 = FACE_OUTER_BOUND ( 'NONE', #55, .T. ) ;
#125 = DIRECTION ( 'NONE',  ( 0.0000000000000000000, 0.0000000000000000000, -1.000000000000000000 ) ) ;
#126 = DIRECTION ( 'NONE',  ( 1.000000000000000000, 0.0000000000000000000, 0.0000000000000000000 ) ) ;
#127 = CARTESIAN_POINT ( 'NONE',  ( -979.7999999999999500, 3.000000000000000000, -425.5000000000000000 ) ) ;
#128 = AXIS2_PLACEMENT_3D ( 'NONE', #127, #126, #125 ) ;
#129 = PLANE ( 'NONE',  #128 ) ;
#130 = PLANE ( 'NONE',  #123 ) ;
#131 = FACE_OUTER_BOUND ( 'NONE', #50, .T. ) ;
#132 = DIRECTION ( 'NONE',  ( -1.000000000000000000, -0.0000000000000000000, -0.0000000000000000000 ) ) ;
#133 = VECTOR ( 'NONE', #132, 1000.000000000000000 ) ;
#134 = CARTESIAN_POINT ( 'NONE',  ( -1350.000000000000000, 0.0000000000000000000, -425.5000000000000000 ) ) ;
#135 = LINE ( 'NONE', #134, #133 ) ;
#136 = DIRECTION ( 'NONE',  ( 0.0000000000000000000, 0.0000000000000000000, -1.000000000000000000 ) ) ;
#137 = VECTOR ( 'NONE', #136, 1000.000000000000000 ) ;
#138 = CARTESIAN_POINT ( 'NONE',  ( -979.7999999999999500, 0.0000000000000000000, 624.9999999999997700 ) ) ;
#139 = LINE ( 'NONE', #138, #137 ) ;
#140 = DIRECTION ( 'NONE',  ( -0.0000000000000000000, -1.000000000000000000, -0.0000000000000000000 ) ) ;
#141 = VECTOR ( 'NONE', #140, 1000.000000000000000 ) ;
#142 = CARTESIAN_POINT ( 'NONE',  ( -1250.000000000000000, 3.000000000000000000, -625.0000000000000000 ) ) ;
#143 = LINE ( 'NONE', #142, #141 ) ;
#144 = DIRECTION ( 'NONE',  ( 0.0000000000000000000, 0.0000000000000000000, 1.000000000000000000 ) ) ;
#145 = VECTOR ( 'NONE', #144, 1000.000000000000000 ) ;
#146 = CARTESIAN_POINT ( 'NONE',  ( -1250.000000000000000, 3.000000000000000000, -625.0000000000000000 ) ) ;
#147 = LINE ( 'NONE', #146, #145 ) ;
#148 = SHAPE_DEFINITION_REPRESENTATION ( #237, #164 ) ;
#149 = ITEM_DEFINED_TRANSFORMATION ( 'NONE', 'NONE', #159,  #210 ) ;
#150 = AXIS2_PLACEMENT_3D ( 'NONE', #200, #166, #165 ) ;
#151 =( GEOMETRIC_REPRESENTATION_CONTEXT ( 3 ) GLOBAL_UNCERTAINTY_ASSIGNED_CONTEXT ( ( #152 ) ) GLOBAL_UNIT_ASSIGNED_CONTEXT ( ( #155, #154, #153 ) ) REPRESENTATION_CONTEXT ( 'NONE', 'WORKASPACE' ) );
#152 = UNCERTAINTY_MEASURE_WITH_UNIT (LENGTH_MEASURE( 1.000000000000000100E-005 ), #155, 'distance_accuracy_value', 'NONE');
#153 =( NAMED_UNIT ( * ) SI_UNIT ( $, .STERADIAN. ) SOLID_ANGLE_UNIT ( ) );
#154 =( NAMED_UNIT ( * ) PLANE_ANGLE_UNIT ( ) SI_UNIT ( $, .RADIAN. ) );
#155 =( LENGTH_UNIT ( ) NAMED_UNIT ( * ) SI_UNIT ( .MILLI., .METRE. ) );
#156 = DIRECTION ( 'NONE',  ( 1.000000000000000000, 0.0000000000000000000, 0.0000000000000000000 ) ) ;
#157 = DIRECTION ( 'NONE',  ( 0.0000000000000000000, 0.0000000000000000000, 1.000000000000000000 ) ) ;
#158 = CARTESIAN_POINT ( 'NONE',  ( 0.0000000000000000000, 0.0000000000000000000, 0.0000000000000000000 ) ) ;
#159 = AXIS2_PLACEMENT_3D ( 'NONE', #158, #157, #156 ) ;
#160 = DIRECTION ( 'NONE',  ( 1.000000000000000000, 0.0000000000000000000, 0.0000000000000000000 ) ) ;
#161 = DIRECTION ( 'NONE',  ( 0.0000000000000000000, 0.0000000000000000000, 1.000000000000000000 ) ) ;
#162 = CARTESIAN_POINT ( 'NONE',  ( 0.0000000000000000000, 0.0000000000000000000, 0.0000000000000000000 ) ) ;
#163 = AXIS2_PLACEMENT_3D ( 'NONE', #162, #161, #160 ) ;
#164 = SHAPE_REPRESENTATION ( '27030380', ( #150, #159 ), #151 ) ;
#165 = DIRECTION ( 'NONE',  ( 1.000000000000000000, 0.0000000000000000000, 0.0000000000000000000 ) ) ;
#166 = DIRECTION ( 'NONE',  ( 0.0000000000000000000, 0.0000000000000000000, 1.000000000000000000 ) ) ;
#167 =( GEOMETRIC_REPRESENTATION_CONTEXT ( 3 ) GLOBAL_UNCERTAINTY_ASSIGNED_CONTEXT ( ( #168 ) ) GLOBAL_UNIT_ASSIGNED_CONTEXT ( ( #202, #201, #169 ) ) REPRESENTATION_CONTEXT ( 'NONE', 'WORKASPACE' ) );
#168 = UNCERTAINTY_MEASURE_WITH_UNIT (LENGTH_MEASURE( 1.000000000000000100E-005 ), #202, 'distance_accuracy_value', 'NONE');
#169 =( NAMED_UNIT ( * ) SI_UNIT ( $, .STERADIAN. ) SOLID_ANGLE_UNIT ( ) );
#170 = UNCERTAINTY_MEASURE_WITH_UNIT (LENGTH_MEASURE( 1.000000000000000100E-005 ), #173, 'distance_accuracy_value', 'NONE');
#171 =( NAMED_UNIT ( * ) SI_UNIT ( $, .STERADIAN. ) SOLID_ANGLE_UNIT ( ) );
#172 =( NAMED_UNIT ( * ) PLANE_ANGLE_UNIT ( ) SI_UNIT ( $, .RADIAN. ) );
#173 =( LENGTH_UNIT ( ) NAMED_UNIT ( * ) SI_UNIT ( .MILLI., .METRE. ) );
#174 = MECHANICAL_DESIGN_GEOMETRIC_PRESENTATION_REPRESENTATION (  '', ( #176 ), #112 ) ;
#175 = PRESENTATION_LAYER_ASSIGNMENT (  '', '', ( #176 ) ) ;
#176 = STYLED_ITEM ( 'NONE', ( #177 ), #38 ) ;
#177 = PRESENTATION_STYLE_ASSIGNMENT (( #178 ) ) ;
#178 = SURFACE_STYLE_USAGE ( .BOTH. , #179 ) ;
#179 = SURFACE_SIDE_STYLE ('',( #180 ) ) ;
#180 = SURFACE_STYLE_FILL_AREA ( #185 ) ;
#181 = COLOUR_RGB ( '',0.7960784313725489700, 0.8235294117647058400, 0.9372549019607843100 ) ;
#182 = DIRECTION ( 'NONE',  ( 0.0000000000000000000, -0.0000000000000000000, 1.000000000000000000 ) ) ;
#183 = DIRECTION ( 'NONE',  ( 0.0000000000000000000, 1.000000000000000000, 0.0000000000000000000 ) ) ;
#184 = AXIS2_PLACEMENT_3D ( 'NONE', #187, #183, #182 ) ;
#185 = FILL_AREA_STYLE ('',( #186 ) ) ;
#186 = FILL_AREA_STYLE_COLOUR ( '', #181 ) ;
#187 = CARTESIAN_POINT ( 'NONE',  ( -1250.000000000000000, 0.0000000000000000000, 624.9999999999997700 ) ) ;
#188 = PLANE ( 'NONE',  #184 ) ;
#189 = FACE_OUTER_BOUND ( 'NONE', #51, .T. ) ;
#190 = DIRECTION ( 'NONE',  ( -0.0000000000000000000, -0.0000000000000000000, 1.000000000000000000 ) ) ;
#191 = VECTOR ( 'NONE', #190, 1000.000000000000000 ) ;
#192 = CARTESIAN_POINT ( 'NONE',  ( -979.7999999999999500, 3.000000000000000000, -425.5000000000000000 ) ) ;
#193 = LINE ( 'NONE', #192, #191 ) ;
#194 = CARTESIAN_POINT ( 'NONE',  ( -979.7999999999999500, 3.000000000000000000, -425.5000000000000000 ) ) ;
#195 = DIRECTION ( 'NONE',  ( -1.000000000000000000, -0.0000000000000000000, -0.0000000000000000000 ) ) ;
#196 = VECTOR ( 'NONE', #195, 1000.000000000000000 ) ;
#197 = CARTESIAN_POINT ( 'NONE',  ( -1350.000000000000000, 3.000000000000000000, -425.5000000000000000 ) ) ;
#198 = LINE ( 'NONE', #197, #196 ) ;
#199 = CARTESIAN_POINT ( 'NONE',  ( -1250.000000000000000, 3.000000000000000000, -625.0000000000000000 ) ) ;
#200 = CARTESIAN_POINT ( 'NONE',  ( 0.0000000000000000000, 0.0000000000000000000, 0.0000000000000000000 ) ) ;
#201 =( NAMED_UNIT ( * ) PLANE_ANGLE_UNIT ( ) SI_UNIT ( $, .RADIAN. ) );
#202 =( LENGTH_UNIT ( ) NAMED_UNIT ( * ) SI_UNIT ( .MILLI., .METRE. ) );
#203 = DIRECTION ( 'NONE',  ( 1.000000000000000000, 0.0000000000000000000, 0.0000000000000000000 ) ) ;
#204 = DIRECTION ( 'NONE',  ( 0.0000000000000000000, 0.0000000000000000000, 1.000000000000000000 ) ) ;
#205 = CARTESIAN_POINT ( 'NONE',  ( 0.0000000000000000000, 0.0000000000000000000, 0.0000000000000000000 ) ) ;
#206 = AXIS2_PLACEMENT_3D ( 'NONE', #205, #204, #203 ) ;
#207 = DIRECTION ( 'NONE',  ( 1.000000000000000000, 0.0000000000000000000, 0.0000000000000000000 ) ) ;
#208 = DIRECTION ( 'NONE',  ( 0.0000000000000000000, 0.0000000000000000000, 1.000000000000000000 ) ) ;
#209 = CARTESIAN_POINT ( 'NONE',  ( 0.0000000000000000000, 0.0000000000000000000, 0.0000000000000000000 ) ) ;
#210 = AXIS2_PLACEMENT_3D ( 'NONE', #209, #208, #207 ) ;
#211 = SHAPE_REPRESENTATION ( '51431_Standard', ( #210, #206 ), #167 ) ;
#212 = SHAPE_REPRESENTATION_RELATIONSHIP ( 'NONE' , 'NONE' ,  #213, #65 ) ;
#213 = SHAPE_REPRESENTATION ( '95182_Standard', ( #217 ), #66 ) ;
#214 = DIRECTION ( 'NONE',  ( 1.000000000000000000, 0.0000000000000000000, 0.0000000000000000000 ) ) ;
#215 = DIRECTION ( 'NONE',  ( 0.0000000000000000000, 0.0000000000000000000, 1.000000000000000000 ) ) ;
#216 = CARTESIAN_POINT ( 'NONE',  ( 0.0000000000000000000, 0.0000000000000000000, 0.0000000000000000000 ) ) ;
#217 = AXIS2_PLACEMENT_3D ( 'NONE', #216, #215, #214 ) ;
#218 = PRODUCT_DEFINITION_SHAPE ( 'NONE', 'NONE',  #221 ) ;
#219 = PRODUCT_RELATED_PRODUCT_CATEGORY ( 'part', '', ( #247 ) ) ;
#220 = PRODUCT_DEFINITION_FORMATION_WITH_SPECIFIED_SOURCE ( 'ANY', '', #247, .NOT_KNOWN. ) ;
#221 = PRODUCT_DEFINITION ( 'UNKNOWN', '', #220, #222 ) ;
#222 = PRODUCT_DEFINITION_CONTEXT ( 'detailed design', #224, 'design' ) ;
#223 = APPLICATION_PROTOCOL_DEFINITION ( 'draft international standard', 'automotive_design', 1998, #224 ) ;
#224 = APPLICATION_CONTEXT ( 'automotive_design' ) ;
#225 = PRODUCT_DEFINITION_SHAPE ( 'NONE', 'NONE',  #229 ) ;
#226 = PRODUCT_RELATED_PRODUCT_CATEGORY ( 'part', '', ( #234 ) ) ;
#227 = PRODUCT_DEFINITION_FORMATION_WITH_SPECIFIED_SOURCE ( 'ANY', '', #234, .NOT_KNOWN. ) ;
#228 = SHAPE_DEFINITION_REPRESENTATION ( #218, #213 ) ;
#229 = PRODUCT_DEFINITION ( 'UNKNOWN', '', #227, #230 ) ;
#230 = PRODUCT_DEFINITION_CONTEXT ( 'detailed design', #232, 'design' ) ;
#231 = APPLICATION_PROTOCOL_DEFINITION ( 'draft international standard', 'automotive_design', 1998, #232 ) ;
#232 = APPLICATION_CONTEXT ( 'automotive_design' ) ;
#233 = SHAPE_DEFINITION_REPRESENTATION ( #225, #211 ) ;
#234 = PRODUCT ( '51431_Standard', '51431_Standard', '', ( #235 ) ) ;
#235 = PRODUCT_CONTEXT ( 'NONE', #250, 'mechanical' ) ;
#236 = APPLICATION_PROTOCOL_DEFINITION ( 'draft international standard', 'automotive_design', 1998, #250 ) ;
#237 = PRODUCT_DEFINITION_SHAPE ( 'NONE', 'NONE',  #238 ) ;
#238 = PRODUCT_DEFINITION ( 'UNKNOWN', '', #255, #243 ) ;
#239 = NEXT_ASSEMBLY_USAGE_OCCURRENCE ( 'NAUO1', ' ', ' ', #238, #229, $ ) ;
#240 =( REPRESENTATION_RELATIONSHIP ('NONE','NONE', #164, #211 ) REPRESENTATION_RELATIONSHIP_WITH_TRANSFORMATION ( #149 )SHAPE_REPRESENTATION_RELATIONSHIP( ) );
#241 =( REPRESENTATION_RELATIONSHIP ('NONE','NONE', #211, #213 ) REPRESENTATION_RELATIONSHIP_WITH_TRANSFORMATION ( #242 )SHAPE_REPRESENTATION_RELATIONSHIP( ) );
#242 = ITEM_DEFINED_TRANSFORMATION ( 'NONE', 'NONE', #206,  #217 ) ;
#243 = PRODUCT_DEFINITION_CONTEXT ( 'detailed design', #2, 'design' ) ;
#244 = CONTEXT_DEPENDENT_SHAPE_REPRESENTATION ( #240, #245 ) ;
#245 = PRODUCT_DEFINITION_SHAPE ( 'NONE', 'NONE',  #239 ) ;
#246 = APPLICATION_CONTEXT ( 'automotive_design' ) ;
#247 = PRODUCT ( '95182_Standard', '95182_Standard', '', ( #248 ) ) ;
#248 = PRODUCT_CONTEXT ( 'NONE', #246, 'mechanical' ) ;
#249 = APPLICATION_PROTOCOL_DEFINITION ( 'draft international standard', 'automotive_design', 1998, #246 ) ;
#250 = APPLICATION_CONTEXT ( 'automotive_design' ) ;
#251 = CONTEXT_DEPENDENT_SHAPE_REPRESENTATION ( #241, #253 ) ;
#252 = NEXT_ASSEMBLY_USAGE_OCCURRENCE ( 'NAUO2', ' ', ' ', #229, #221, $ ) ;
#253 = PRODUCT_DEFINITION_SHAPE ( 'NONE', 'NONE',  #252 ) ;
#254 = PRODUCT_RELATED_PRODUCT_CATEGORY ( 'part', '', ( #18 ) ) ;
#255 = PRODUCT_DEFINITION_FORMATION_WITH_SPECIFIED_SOURCE ( 'ANY', '', #18, .NOT_KNOWN. ) ;
ENDSEC;
END-ISO-10303-21;
