ISO-10303-21;
HEADER;
FILE_DESCRIPTION (( 'STEP AP214' ),
    '1' );
FILE_NAME ('27030280.STEP',
    '2008-10-02T08:52:46',
    ( 'baramundi Management Suite Install User' ),
    ( 'ROSE Systemtechnik GmbH' ),
    'SwSTEP 2.0',
    'SolidWorks 2008',
    '' );
FILE_SCHEMA (( 'AUTOMOTIVE_DESIGN' ));
ENDSEC;

DATA;
#1 = VERTEX_POINT ( 'NONE', #101 ) ;
#2 = ORIENTED_EDGE ( 'NONE', *, *, #6, .T. ) ;
#3 = VERTEX_POINT ( 'NONE', #103 ) ;
#4 = ORIENTED_EDGE ( 'NONE', *, *, #5, .F. ) ;
#5 = EDGE_CURVE ( 'NONE', #3, #186, #182, .T. ) ;
#6 = EDGE_CURVE ( 'NONE', #1, #187, #175, .T. ) ;
#7 = VERTEX_POINT ( 'NONE', #201 ) ;
#8 = ORIENTED_EDGE ( 'NONE', *, *, #9, .T. ) ;
#9 = EDGE_CURVE ( 'NONE', #7, #1, #199, .T. ) ;
#10 = EDGE_LOOP ( 'NONE', ( #100, #134, #8, #2 ) ) ;
#11 = MANIFOLD_SOLID_BREP ( 'NONE', #31 ) ;
#12 = ADVANCED_FACE ( 'NONE', ( #65 ), #64, .F. ) ;
#13 = ORIENTED_EDGE ( 'NONE', *, *, #14, .T. ) ;
#14 = EDGE_CURVE ( 'NONE', #184, #1, #110, .T. ) ;
#15 = ORIENTED_EDGE ( 'NONE', *, *, #9, .F. ) ;
#16 = ORIENTED_EDGE ( 'NONE', *, *, #17, .F. ) ;
#17 = EDGE_CURVE ( 'NONE', #185, #7, #117, .T. ) ;
#18 = ADVANCED_FACE ( 'NONE', ( #140 ), #139, .T. ) ;
#19 = EDGE_LOOP ( 'NONE', ( #20, #27, #28, #22 ) ) ;
#20 = ORIENTED_EDGE ( 'NONE', *, *, #183, .T. ) ;
#21 = EDGE_CURVE ( 'NONE', #3, #37, #108, .T. ) ;
#22 = ORIENTED_EDGE ( 'NONE', *, *, #29, .T. ) ;
#23 = EDGE_CURVE ( 'NONE', #37, #187, #104, .T. ) ;
#24 = ORIENTED_EDGE ( 'NONE', *, *, #23, .T. ) ;
#25 = ORIENTED_EDGE ( 'NONE', *, *, #6, .F. ) ;
#26 = ORIENTED_EDGE ( 'NONE', *, *, #14, .F. ) ;
#27 = ORIENTED_EDGE ( 'NONE', *, *, #99, .T. ) ;
#28 = ORIENTED_EDGE ( 'NONE', *, *, #21, .T. ) ;
#29 = EDGE_CURVE ( 'NONE', #37, #184, #169, .T. ) ;
#30 = ORIENTED_EDGE ( 'NONE', *, *, #5, .T. ) ;
#31 = CLOSED_SHELL ( 'NONE', ( #12, #178, #155, #40, #18, #32 ) ) ;
#32 = ADVANCED_FACE ( 'NONE', ( #133 ), #132, .T. ) ;
#33 = EDGE_LOOP ( 'NONE', ( #34, #35, #36, #30 ) ) ;
#34 = ORIENTED_EDGE ( 'NONE', *, *, #44, .T. ) ;
#35 = ORIENTED_EDGE ( 'NONE', *, *, #23, .F. ) ;
#36 = ORIENTED_EDGE ( 'NONE', *, *, #21, .F. ) ;
#37 = VERTEX_POINT ( 'NONE', #209 ) ;
#38 = ORIENTED_EDGE ( 'NONE', *, *, #29, .F. ) ;
#39 = EDGE_LOOP ( 'NONE', ( #38, #24, #25, #26 ) ) ;
#40 = ADVANCED_FACE ( 'NONE', ( #208 ), #207, .F. ) ;
#41 = ORIENTED_EDGE ( 'NONE', *, *, #135, .T. ) ;
#42 = ORIENTED_EDGE ( 'NONE', *, *, #17, .T. ) ;
#43 = EDGE_LOOP ( 'NONE', ( #4, #98, #42, #41 ) ) ;
#44 = EDGE_CURVE ( 'NONE', #186, #187, #73, .T. ) ;
#45 =( NAMED_UNIT ( * ) PLANE_ANGLE_UNIT ( ) SI_UNIT ( $, .RADIAN. ) );
#46 =( LENGTH_UNIT ( ) NAMED_UNIT ( * ) SI_UNIT ( .MILLI., .METRE. ) );
#47 = CARTESIAN_POINT ( 'NONE',  ( 0.0000000000000000000, 0.0000000000000000000, 0.0000000000000000000 ) ) ;
#48 = AXIS2_PLACEMENT_3D ( 'NONE', #47, #127, #126 ) ;
#49 = DIRECTION ( 'NONE',  ( 1.000000000000000000, 0.0000000000000000000, 0.0000000000000000000 ) ) ;
#50 = DIRECTION ( 'NONE',  ( 0.0000000000000000000, 0.0000000000000000000, 1.000000000000000000 ) ) ;
#51 =( GEOMETRIC_REPRESENTATION_CONTEXT ( 3 ) GLOBAL_UNCERTAINTY_ASSIGNED_CONTEXT ( ( #52 ) ) GLOBAL_UNIT_ASSIGNED_CONTEXT ( ( #55, #54, #53 ) ) REPRESENTATION_CONTEXT ( 'NONE', 'WORKASPACE' ) );
#52 = UNCERTAINTY_MEASURE_WITH_UNIT (LENGTH_MEASURE( 1.000000000000000100E-005 ), #55, 'distance_accuracy_value', 'NONE');
#53 =( NAMED_UNIT ( * ) SI_UNIT ( $, .STERADIAN. ) SOLID_ANGLE_UNIT ( ) );
#54 =( NAMED_UNIT ( * ) PLANE_ANGLE_UNIT ( ) SI_UNIT ( $, .RADIAN. ) );
#55 =( LENGTH_UNIT ( ) NAMED_UNIT ( * ) SI_UNIT ( .MILLI., .METRE. ) );
#56 = DIRECTION ( 'NONE',  ( 1.000000000000000000, 0.0000000000000000000, 0.0000000000000000000 ) ) ;
#57 = DIRECTION ( 'NONE',  ( 0.0000000000000000000, 0.0000000000000000000, 1.000000000000000000 ) ) ;
#58 = CARTESIAN_POINT ( 'NONE',  ( 0.0000000000000000000, 0.0000000000000000000, 0.0000000000000000000 ) ) ;
#59 = AXIS2_PLACEMENT_3D ( 'NONE', #58, #57, #56 ) ;
#60 = DIRECTION ( 'NONE',  ( 1.000000000000000000, 0.0000000000000000000, 0.0000000000000000000 ) ) ;
#61 = DIRECTION ( 'NONE',  ( 0.0000000000000000000, 0.0000000000000000000, 1.000000000000000000 ) ) ;
#62 = CARTESIAN_POINT ( 'NONE',  ( 0.0000000000000000000, 0.0000000000000000000, 0.0000000000000000000 ) ) ;
#63 = AXIS2_PLACEMENT_3D ( 'NONE', #113, #112, #111 ) ;
#64 = PLANE ( 'NONE',  #63 ) ;
#65 = FACE_OUTER_BOUND ( 'NONE', #10, .T. ) ;
#66 =( GEOMETRIC_REPRESENTATION_CONTEXT ( 3 ) GLOBAL_UNCERTAINTY_ASSIGNED_CONTEXT ( ( #82 ) ) GLOBAL_UNIT_ASSIGNED_CONTEXT ( ( #46, #45, #83 ) ) REPRESENTATION_CONTEXT ( 'NONE', 'WORKASPACE' ) );
#67 = VECTOR ( 'NONE', #97, 1000.000000000000000 ) ;
#68 = CARTESIAN_POINT ( 'NONE',  ( -1017.600000000000000, 3.000000000000000000, -456.6999999999999900 ) ) ;
#69 = LINE ( 'NONE', #68, #67 ) ;
#70 = DIRECTION ( 'NONE',  ( 0.0000000000000000000, -1.000000000000000000, 0.0000000000000000000 ) ) ;
#71 = VECTOR ( 'NONE', #70, 1000.000000000000000 ) ;
#72 = CARTESIAN_POINT ( 'NONE',  ( -1250.000000000000000, 3.000000000000000000, -456.6999999999999900 ) ) ;
#73 = LINE ( 'NONE', #72, #71 ) ;
#74 = AXIS2_PLACEMENT_3D ( 'NONE', #75, #165, #164 ) ;
#75 = CARTESIAN_POINT ( 'NONE',  ( -1250.000000000000000, 3.000000000000000000, -625.0000000000000000 ) ) ;
#76 = FACE_OUTER_BOUND ( 'NONE', #179, .T. ) ;
#77 = DIRECTION ( 'NONE',  ( 0.0000000000000000000, -0.0000000000000000000, 1.000000000000000000 ) ) ;
#78 = DIRECTION ( 'NONE',  ( 0.0000000000000000000, 1.000000000000000000, 0.0000000000000000000 ) ) ;
#79 = CARTESIAN_POINT ( 'NONE',  ( -1250.000000000000000, 3.000000000000000000, 624.9999999999997700 ) ) ;
#80 = PLANE ( 'NONE',  #74 ) ;
#81 = AXIS2_PLACEMENT_3D ( 'NONE', #79, #78, #77 ) ;
#82 = UNCERTAINTY_MEASURE_WITH_UNIT (LENGTH_MEASURE( 1.000000000000000100E-005 ), #46, 'distance_accuracy_value', 'NONE');
#83 =( NAMED_UNIT ( * ) SI_UNIT ( $, .STERADIAN. ) SOLID_ANGLE_UNIT ( ) );
#84 = MECHANICAL_DESIGN_GEOMETRIC_PRESENTATION_REPRESENTATION (  '', ( #86 ), #66 ) ;
#85 = PRESENTATION_LAYER_ASSIGNMENT (  '', '', ( #86 ) ) ;
#86 = STYLED_ITEM ( 'NONE', ( #87 ), #11 ) ;
#87 = PRESENTATION_STYLE_ASSIGNMENT (( #88 ) ) ;
#88 = SURFACE_STYLE_USAGE ( .BOTH. , #89 ) ;
#89 = SURFACE_SIDE_STYLE ('',( #90 ) ) ;
#90 = SURFACE_STYLE_FILL_AREA ( #200 ) ;
#91 = PLANE ( 'NONE',  #81 ) ;
#92 = FACE_OUTER_BOUND ( 'NONE', #43, .T. ) ;
#93 = DIRECTION ( 'NONE',  ( 0.0000000000000000000, 0.0000000000000000000, 1.000000000000000000 ) ) ;
#94 = VECTOR ( 'NONE', #93, 1000.000000000000000 ) ;
#95 = CARTESIAN_POINT ( 'NONE',  ( -1250.000000000000000, 3.000000000000000000, -625.0000000000000000 ) ) ;
#96 = LINE ( 'NONE', #95, #94 ) ;
#97 = DIRECTION ( 'NONE',  ( -0.0000000000000000000, -0.0000000000000000000, 1.000000000000000000 ) ) ;
#98 = ORIENTED_EDGE ( 'NONE', *, *, #99, .F. ) ;
#99 = EDGE_CURVE ( 'NONE', #185, #3, #69, .T. ) ;
#100 = ORIENTED_EDGE ( 'NONE', *, *, #44, .F. ) ;
#101 = CARTESIAN_POINT ( 'NONE',  ( -1250.000000000000000, 0.0000000000000000000, -625.0000000000000000 ) ) ;
#102 = CARTESIAN_POINT ( 'NONE',  ( 0.0000000000000000000, 0.0000000000000000000, 0.0000000000000000000 ) ) ;
#103 = CARTESIAN_POINT ( 'NONE',  ( -1017.600000000000000, 3.000000000000000000, -456.6999999999999900 ) ) ;
#104 = LINE ( 'NONE', #172, #171 ) ;
#105 = DIRECTION ( 'NONE',  ( 0.0000000000000000000, -1.000000000000000000, 0.0000000000000000000 ) ) ;
#106 = VECTOR ( 'NONE', #105, 1000.000000000000000 ) ;
#107 = CARTESIAN_POINT ( 'NONE',  ( -1017.600000000000000, 3.000000000000000000, -456.6999999999999900 ) ) ;
#108 = LINE ( 'NONE', #107, #106 ) ;
#109 = DIRECTION ( 'NONE',  ( 0.0000000000000000000, 0.0000000000000000000, -1.000000000000000000 ) ) ;
#110 = LINE ( 'NONE', #114, #119 ) ;
#111 = DIRECTION ( 'NONE',  ( 0.0000000000000000000, 0.0000000000000000000, -1.000000000000000000 ) ) ;
#112 = DIRECTION ( 'NONE',  ( 1.000000000000000000, 0.0000000000000000000, 0.0000000000000000000 ) ) ;
#113 = CARTESIAN_POINT ( 'NONE',  ( -1250.000000000000000, 3.000000000000000000, -625.0000000000000000 ) ) ;
#114 = CARTESIAN_POINT ( 'NONE',  ( -1250.000000000000000, 0.0000000000000000000, -625.0000000000000000 ) ) ;
#115 = VECTOR ( 'NONE', #141, 1000.000000000000000 ) ;
#116 = CARTESIAN_POINT ( 'NONE',  ( -1250.000000000000000, 3.000000000000000000, -625.0000000000000000 ) ) ;
#117 = LINE ( 'NONE', #116, #115 ) ;
#118 = DIRECTION ( 'NONE',  ( -1.000000000000000000, -0.0000000000000000000, -0.0000000000000000000 ) ) ;
#119 = VECTOR ( 'NONE', #118, 1000.000000000000000 ) ;
#120 =( NAMED_UNIT ( * ) PLANE_ANGLE_UNIT ( ) SI_UNIT ( $, .RADIAN. ) );
#121 =( LENGTH_UNIT ( ) NAMED_UNIT ( * ) SI_UNIT ( .MILLI., .METRE. ) );
#122 = DIRECTION ( 'NONE',  ( 1.000000000000000000, 0.0000000000000000000, 0.0000000000000000000 ) ) ;
#123 = DIRECTION ( 'NONE',  ( 0.0000000000000000000, 0.0000000000000000000, 1.000000000000000000 ) ) ;
#124 = CARTESIAN_POINT ( 'NONE',  ( 0.0000000000000000000, 0.0000000000000000000, 0.0000000000000000000 ) ) ;
#125 = AXIS2_PLACEMENT_3D ( 'NONE', #124, #123, #122 ) ;
#126 = DIRECTION ( 'NONE',  ( 1.000000000000000000, 0.0000000000000000000, 0.0000000000000000000 ) ) ;
#127 = DIRECTION ( 'NONE',  ( 0.0000000000000000000, 0.0000000000000000000, 1.000000000000000000 ) ) ;
#128 = DIRECTION ( 'NONE',  ( 1.000000000000000000, 0.0000000000000000000, 0.0000000000000000000 ) ) ;
#129 = DIRECTION ( 'NONE',  ( -0.0000000000000000000, 0.0000000000000000000, 1.000000000000000000 ) ) ;
#130 = CARTESIAN_POINT ( 'NONE',  ( -1350.000000000000000, 3.000000000000000000, -456.6999999999999900 ) ) ;
#131 = AXIS2_PLACEMENT_3D ( 'NONE', #130, #129, #128 ) ;
#132 = PLANE ( 'NONE',  #131 ) ;
#133 = FACE_OUTER_BOUND ( 'NONE', #33, .T. ) ;
#134 = ORIENTED_EDGE ( 'NONE', *, *, #135, .F. ) ;
#135 = EDGE_CURVE ( 'NONE', #7, #186, #96, .T. ) ;
#136 = DIRECTION ( 'NONE',  ( 1.000000000000000000, 0.0000000000000000000, 0.0000000000000000000 ) ) ;
#137 = CARTESIAN_POINT ( 'NONE',  ( -1017.600000000000000, 3.000000000000000000, -456.6999999999999900 ) ) ;
#138 = AXIS2_PLACEMENT_3D ( 'NONE', #137, #136, #109 ) ;
#139 = PLANE ( 'NONE',  #138 ) ;
#140 = FACE_OUTER_BOUND ( 'NONE', #19, .T. ) ;
#141 = DIRECTION ( 'NONE',  ( -1.000000000000000000, -0.0000000000000000000, -0.0000000000000000000 ) ) ;
#142 = UNCERTAINTY_MEASURE_WITH_UNIT (LENGTH_MEASURE( 1.000000000000000100E-005 ), #145, 'distance_accuracy_value', 'NONE');
#143 =( NAMED_UNIT ( * ) SI_UNIT ( $, .STERADIAN. ) SOLID_ANGLE_UNIT ( ) );
#144 =( NAMED_UNIT ( * ) PLANE_ANGLE_UNIT ( ) SI_UNIT ( $, .RADIAN. ) );
#145 =( LENGTH_UNIT ( ) NAMED_UNIT ( * ) SI_UNIT ( .MILLI., .METRE. ) );
#146 = SHAPE_REPRESENTATION ( '27030280', ( #193, #125 ), #194 ) ;
#147 = SHAPE_REPRESENTATION_RELATIONSHIP ( 'NONE' , 'NONE' ,  #148, #153 ) ;
#148 = SHAPE_REPRESENTATION ( '95182_Standard', ( #152 ), #154 ) ;
#149 = DIRECTION ( 'NONE',  ( 1.000000000000000000, 0.0000000000000000000, 0.0000000000000000000 ) ) ;
#150 = DIRECTION ( 'NONE',  ( 0.0000000000000000000, 0.0000000000000000000, 1.000000000000000000 ) ) ;
#151 = CARTESIAN_POINT ( 'NONE',  ( 0.0000000000000000000, 0.0000000000000000000, 0.0000000000000000000 ) ) ;
#152 = AXIS2_PLACEMENT_3D ( 'NONE', #151, #150, #149 ) ;
#153 = ADVANCED_BREP_SHAPE_REPRESENTATION ( '', ( #11, #152 ), #154 ) ;
#154 =( GEOMETRIC_REPRESENTATION_CONTEXT ( 3 ) GLOBAL_UNCERTAINTY_ASSIGNED_CONTEXT ( ( #142 ) ) GLOBAL_UNIT_ASSIGNED_CONTEXT ( ( #145, #144, #143 ) ) REPRESENTATION_CONTEXT ( 'NONE', 'WORKASPACE' ) );
#155 = ADVANCED_FACE ( 'NONE', ( #92 ), #91, .T. ) ;
#156 = CARTESIAN_POINT ( 'NONE',  ( -1250.000000000000000, 0.0000000000000000000, -456.6999999999998700 ) ) ;
#157 = CARTESIAN_POINT ( 'NONE',  ( -1250.000000000000000, 3.000000000000000000, -456.6999999999999900 ) ) ;
#158 = CARTESIAN_POINT ( 'NONE',  ( -1017.600000000000000, 3.000000000000000000, -625.0000000000000000 ) ) ;
#159 = CARTESIAN_POINT ( 'NONE',  ( -1017.600000000000000, 0.0000000000000000000, -625.0000000000000000 ) ) ;
#160 = DIRECTION ( 'NONE',  ( 0.0000000000000000000, 1.000000000000000000, 0.0000000000000000000 ) ) ;
#161 = VECTOR ( 'NONE', #160, 1000.000000000000000 ) ;
#162 = CARTESIAN_POINT ( 'NONE',  ( -1017.600000000000000, 3.000000000000000000, -625.0000000000000000 ) ) ;
#163 = LINE ( 'NONE', #162, #161 ) ;
#164 = DIRECTION ( 'NONE',  ( 1.000000000000000000, 0.0000000000000000000, -0.0000000000000000000 ) ) ;
#165 = DIRECTION ( 'NONE',  ( 0.0000000000000000000, 0.0000000000000000000, 1.000000000000000000 ) ) ;
#166 = DIRECTION ( 'NONE',  ( 0.0000000000000000000, 0.0000000000000000000, -1.000000000000000000 ) ) ;
#167 = VECTOR ( 'NONE', #166, 1000.000000000000000 ) ;
#168 = CARTESIAN_POINT ( 'NONE',  ( -1017.600000000000000, 0.0000000000000000000, 624.9999999999997700 ) ) ;
#169 = LINE ( 'NONE', #168, #167 ) ;
#170 = DIRECTION ( 'NONE',  ( -1.000000000000000000, -0.0000000000000000000, -0.0000000000000000000 ) ) ;
#171 = VECTOR ( 'NONE', #170, 1000.000000000000000 ) ;
#172 = CARTESIAN_POINT ( 'NONE',  ( -1350.000000000000000, 0.0000000000000000000, -456.6999999999999900 ) ) ;
#173 = DIRECTION ( 'NONE',  ( 0.0000000000000000000, 0.0000000000000000000, 1.000000000000000000 ) ) ;
#174 = CARTESIAN_POINT ( 'NONE',  ( -1250.000000000000000, 0.0000000000000000000, -625.0000000000000000 ) ) ;
#175 = LINE ( 'NONE', #174, #202 ) ;
#176 = DIRECTION ( 'NONE',  ( -1.000000000000000000, -0.0000000000000000000, -0.0000000000000000000 ) ) ;
#177 = VECTOR ( 'NONE', #176, 1000.000000000000000 ) ;
#178 = ADVANCED_FACE ( 'NONE', ( #76 ), #80, .F. ) ;
#179 = EDGE_LOOP ( 'NONE', ( #180, #13, #15, #16 ) ) ;
#180 = ORIENTED_EDGE ( 'NONE', *, *, #183, .F. ) ;
#181 = CARTESIAN_POINT ( 'NONE',  ( -1350.000000000000000, 3.000000000000000000, -456.6999999999999900 ) ) ;
#182 = LINE ( 'NONE', #181, #177 ) ;
#183 = EDGE_CURVE ( 'NONE', #184, #185, #163, .T. ) ;
#184 = VERTEX_POINT ( 'NONE', #159 ) ;
#185 = VERTEX_POINT ( 'NONE', #158 ) ;
#186 = VERTEX_POINT ( 'NONE', #157 ) ;
#187 = VERTEX_POINT ( 'NONE', #156 ) ;
#188 = FILL_AREA_STYLE_COLOUR ( '', #189 ) ;
#189 = COLOUR_RGB ( '',0.7960784313725489700, 0.8235294117647058400, 0.9372549019607843100 ) ;
#190 = DIRECTION ( 'NONE',  ( -0.0000000000000000000, -1.000000000000000000, -0.0000000000000000000 ) ) ;
#191 = VECTOR ( 'NONE', #190, 1000.000000000000000 ) ;
#192 = CARTESIAN_POINT ( 'NONE',  ( -1250.000000000000000, 3.000000000000000000, -625.0000000000000000 ) ) ;
#193 = AXIS2_PLACEMENT_3D ( 'NONE', #102, #50, #49 ) ;
#194 =( GEOMETRIC_REPRESENTATION_CONTEXT ( 3 ) GLOBAL_UNCERTAINTY_ASSIGNED_CONTEXT ( ( #195 ) ) GLOBAL_UNIT_ASSIGNED_CONTEXT ( ( #121, #120, #196 ) ) REPRESENTATION_CONTEXT ( 'NONE', 'WORKASPACE' ) );
#195 = UNCERTAINTY_MEASURE_WITH_UNIT (LENGTH_MEASURE( 1.000000000000000100E-005 ), #121, 'distance_accuracy_value', 'NONE');
#196 =( NAMED_UNIT ( * ) SI_UNIT ( $, .STERADIAN. ) SOLID_ANGLE_UNIT ( ) );
#197 = AXIS2_PLACEMENT_3D ( 'NONE', #62, #61, #60 ) ;
#198 = SHAPE_REPRESENTATION ( '56169_Standard', ( #197, #59 ), #51 ) ;
#199 = LINE ( 'NONE', #192, #191 ) ;
#200 = FILL_AREA_STYLE ('',( #188 ) ) ;
#201 = CARTESIAN_POINT ( 'NONE',  ( -1250.000000000000000, 3.000000000000000000, -625.0000000000000000 ) ) ;
#202 = VECTOR ( 'NONE', #173, 1000.000000000000000 ) ;
#203 = DIRECTION ( 'NONE',  ( 0.0000000000000000000, -0.0000000000000000000, 1.000000000000000000 ) ) ;
#204 = DIRECTION ( 'NONE',  ( 0.0000000000000000000, 1.000000000000000000, 0.0000000000000000000 ) ) ;
#205 = CARTESIAN_POINT ( 'NONE',  ( -1250.000000000000000, 0.0000000000000000000, 624.9999999999997700 ) ) ;
#206 = AXIS2_PLACEMENT_3D ( 'NONE', #205, #204, #203 ) ;
#207 = PLANE ( 'NONE',  #206 ) ;
#208 = FACE_OUTER_BOUND ( 'NONE', #39, .T. ) ;
#209 = CARTESIAN_POINT ( 'NONE',  ( -1017.600000000000000, 0.0000000000000000000, -456.6999999999999900 ) ) ;
#210 = ITEM_DEFINED_TRANSFORMATION ( 'NONE', 'NONE', #125,  #197 ) ;
#211 = PRODUCT_DEFINITION_SHAPE ( 'NONE', 'NONE',  #246 ) ;
#212 = PRODUCT ( '27030280', '27030280', '', ( #213 ) ) ;
#213 = PRODUCT_CONTEXT ( 'NONE', #240, 'mechanical' ) ;
#214 = APPLICATION_PROTOCOL_DEFINITION ( 'draft international standard', 'automotive_design', 1998, #240 ) ;
#215 = PRODUCT_DEFINITION_FORMATION_WITH_SPECIFIED_SOURCE ( 'ANY', '', #225, .NOT_KNOWN. ) ;
#216 = ITEM_DEFINED_TRANSFORMATION ( 'NONE', 'NONE', #59,  #152 ) ;
#217 = PRODUCT_DEFINITION ( 'UNKNOWN', '', #215, #218 ) ;
#218 = PRODUCT_DEFINITION_CONTEXT ( 'detailed design', #224, 'design' ) ;
#219 = APPLICATION_PROTOCOL_DEFINITION ( 'draft international standard', 'automotive_design', 1998, #224 ) ;
#220 = CONTEXT_DEPENDENT_SHAPE_REPRESENTATION ( #243, #230 ) ;
#221 = SHAPE_DEFINITION_REPRESENTATION ( #211, #198 ) ;
#222 = PRODUCT_RELATED_PRODUCT_CATEGORY ( 'part', '', ( #244 ) ) ;
#223 = PRODUCT_DEFINITION_FORMATION_WITH_SPECIFIED_SOURCE ( 'ANY', '', #244, .NOT_KNOWN. ) ;
#224 = APPLICATION_CONTEXT ( 'automotive_design' ) ;
#225 = PRODUCT ( '95182_Standard', '95182_Standard', '', ( #253 ) ) ;
#226 = SHAPE_DEFINITION_REPRESENTATION ( #239, #146 ) ;
#227 = SHAPE_DEFINITION_REPRESENTATION ( #241, #148 ) ;
#228 = NEXT_ASSEMBLY_USAGE_OCCURRENCE ( 'NAUO1', ' ', ' ', #234, #246, $ ) ;
#229 = APPLICATION_CONTEXT ( 'automotive_design' ) ;
#230 = PRODUCT_DEFINITION_SHAPE ( 'NONE', 'NONE',  #252 ) ;
#231 = CONTEXT_DEPENDENT_SHAPE_REPRESENTATION ( #238, #255 ) ;
#232 = PRODUCT_RELATED_PRODUCT_CATEGORY ( 'part', '', ( #212 ) ) ;
#233 = PRODUCT_DEFINITION_FORMATION_WITH_SPECIFIED_SOURCE ( 'ANY', '', #212, .NOT_KNOWN. ) ;
#234 = PRODUCT_DEFINITION ( 'UNKNOWN', '', #233, #235 ) ;
#235 = PRODUCT_DEFINITION_CONTEXT ( 'detailed design', #237, 'design' ) ;
#236 = APPLICATION_PROTOCOL_DEFINITION ( 'draft international standard', 'automotive_design', 1998, #237 ) ;
#237 = APPLICATION_CONTEXT ( 'automotive_design' ) ;
#238 =( REPRESENTATION_RELATIONSHIP ('NONE','NONE', #146, #198 ) REPRESENTATION_RELATIONSHIP_WITH_TRANSFORMATION ( #210 )SHAPE_REPRESENTATION_RELATIONSHIP( ) );
#239 = PRODUCT_DEFINITION_SHAPE ( 'NONE', 'NONE',  #234 ) ;
#240 = APPLICATION_CONTEXT ( 'automotive_design' ) ;
#241 = PRODUCT_DEFINITION_SHAPE ( 'NONE', 'NONE',  #217 ) ;
#242 = PRODUCT_RELATED_PRODUCT_CATEGORY ( 'part', '', ( #225 ) ) ;
#243 =( REPRESENTATION_RELATIONSHIP ('NONE','NONE', #198, #148 ) REPRESENTATION_RELATIONSHIP_WITH_TRANSFORMATION ( #216 )SHAPE_REPRESENTATION_RELATIONSHIP( ) );
#244 = PRODUCT ( '56169_Standard', '56169_Standard', '', ( #250 ) ) ;
#245 = APPLICATION_CONTEXT ( 'automotive_design' ) ;
#246 = PRODUCT_DEFINITION ( 'UNKNOWN', '', #223, #247 ) ;
#247 = PRODUCT_DEFINITION_CONTEXT ( 'detailed design', #249, 'design' ) ;
#248 = APPLICATION_PROTOCOL_DEFINITION ( 'draft international standard', 'automotive_design', 1998, #249 ) ;
#249 = APPLICATION_CONTEXT ( 'automotive_design' ) ;
#250 = PRODUCT_CONTEXT ( 'NONE', #229, 'mechanical' ) ;
#251 = APPLICATION_PROTOCOL_DEFINITION ( 'draft international standard', 'automotive_design', 1998, #229 ) ;
#252 = NEXT_ASSEMBLY_USAGE_OCCURRENCE ( 'NAUO2', ' ', ' ', #246, #217, $ ) ;
#253 = PRODUCT_CONTEXT ( 'NONE', #245, 'mechanical' ) ;
#254 = APPLICATION_PROTOCOL_DEFINITION ( 'draft international standard', 'automotive_design', 1998, #245 ) ;
#255 = PRODUCT_DEFINITION_SHAPE ( 'NONE', 'NONE',  #228 ) ;
ENDSEC;
END-ISO-10303-21;
