ISO-10303-21;
HEADER;
FILE_DESCRIPTION (( 'STEP AP214' ),
    '1' );
FILE_NAME ('10094219.STEP',
    '2022-04-20T12:17:43',
    ( 'Ifina' ),
    ( 'Ifina' ),
    'SwSTEP 2.0',
    'SolidWorks 2020',
    '' );
FILE_SCHEMA (( 'AUTOMOTIVE_DESIGN' ));
ENDSEC;

DATA;
#1 = DIRECTION ( 'NONE',  ( 0.000000000000000000, 0.000000000000000000, 1.000000000000000000 ) ) ;
#2 = FILL_AREA_STYLE ('',( #43 ) ) ;
#3 = CARTESIAN_POINT ( 'NONE',  ( 0.000000000000000000, 0.000000000000000000, -3000.000000000000000 ) ) ;
#4 = AXIS2_PLACEMENT_3D ( 'NONE', #125, #67, #96 ) ;
#5 =( LENGTH_UNIT ( ) NAMED_UNIT ( * ) SI_UNIT ( .MILLI., .METRE. ) );
#6 = PRESENTATION_LAYER_ASSIGNMENT (  '', '', ( #118 ) ) ;
#7 = APPLICATION_CONTEXT ( 'automotive_design' ) ;
#8 = PRESENTATION_STYLE_ASSIGNMENT (( #25 ) ) ;
#9 = ORIENTED_EDGE ( 'NONE', *, *, #71, .T. ) ;
#10 =( GEOMETRIC_REPRESENTATION_CONTEXT ( 3 ) GLOBAL_UNCERTAINTY_ASSIGNED_CONTEXT ( ( #128 ) ) GLOBAL_UNIT_ASSIGNED_CONTEXT ( ( #5, #36, #116 ) ) REPRESENTATION_CONTEXT ( 'NONE', 'WORKASPACE' ) );
#11 = ADVANCED_BREP_SHAPE_REPRESENTATION ( '10094219', ( #133, #117 ), #10 ) ;
#12 = AXIS2_PLACEMENT_3D ( 'NONE', #57, #48, #126 ) ;
#13 = CYLINDRICAL_SURFACE ( 'NONE', #4, 24.00000000000000355 ) ;
#14 = DIRECTION ( 'NONE',  ( 0.000000000000000000, 0.000000000000000000, 1.000000000000000000 ) ) ;
#15 = FACE_OUTER_BOUND ( 'NONE', #64, .T. ) ;
#16 = ADVANCED_FACE ( 'NONE', ( #53, #132 ), #74, .F. ) ;
#17 = CARTESIAN_POINT ( 'NONE',  ( 0.000000000000000000, 0.000000000000000000, 0.000000000000000000 ) ) ;
#18 = VERTEX_POINT ( 'NONE', #80 ) ;
#19 = EDGE_LOOP ( 'NONE', ( #9 ) ) ;
#20 = CIRCLE ( 'NONE', #55, 20.00000000000000000 ) ;
#21 = CARTESIAN_POINT ( 'NONE',  ( 0.000000000000000000, 0.000000000000000000, -3000.000000000000000 ) ) ;
#22 = EDGE_CURVE ( 'NONE', #123, #123, #20, .T. ) ;
#23 =( LENGTH_UNIT ( ) NAMED_UNIT ( * ) SI_UNIT ( .MILLI., .METRE. ) );
#24 = FACE_OUTER_BOUND ( 'NONE', #42, .T. ) ;
#25 = SURFACE_STYLE_USAGE ( .BOTH. , #87 ) ;
#26 = COLOUR_RGB ( '',0.7529411764705882248, 0.7529411764705882248, 0.7529411764705882248 ) ;
#27 = EDGE_LOOP ( 'NONE', ( #119 ) ) ;
#28 = ORIENTED_EDGE ( 'NONE', *, *, #124, .F. ) ;
#29 = FACE_OUTER_BOUND ( 'NONE', #92, .T. ) ;
#30 = DIRECTION ( 'NONE',  ( 1.000000000000000000, 0.000000000000000000, -0.000000000000000000 ) ) ;
#31 = FACE_OUTER_BOUND ( 'NONE', #19, .T. ) ;
#32 = ADVANCED_FACE ( 'NONE', ( #24, #76 ), #13, .T. ) ;
#33 = AXIS2_PLACEMENT_3D ( 'NONE', #21, #1, #77 ) ;
#34 = SURFACE_STYLE_USAGE ( .BOTH. , #114 ) ;
#35 = CARTESIAN_POINT ( 'NONE',  ( 0.000000000000000000, 0.000000000000000000, 0.000000000000000000 ) ) ;
#36 =( NAMED_UNIT ( * ) PLANE_ANGLE_UNIT ( ) SI_UNIT ( $, .RADIAN. ) );
#37 = APPLICATION_PROTOCOL_DEFINITION ( 'draft international standard', 'automotive_design', 1998, #7 ) ;
#38 =( NAMED_UNIT ( * ) PLANE_ANGLE_UNIT ( ) SI_UNIT ( $, .RADIAN. ) );
#39 =( LENGTH_UNIT ( ) NAMED_UNIT ( * ) SI_UNIT ( .MILLI., .METRE. ) );
#40 = EDGE_LOOP ( 'NONE', ( #28 ) ) ;
#41 = EDGE_CURVE ( 'NONE', #98, #98, #47, .T. ) ;
#42 = EDGE_LOOP ( 'NONE', ( #82 ) ) ;
#43 = FILL_AREA_STYLE_COLOUR ( '', #85 ) ;
#44 =( NAMED_UNIT ( * ) PLANE_ANGLE_UNIT ( ) SI_UNIT ( $, .RADIAN. ) );
#45 = CARTESIAN_POINT ( 'NONE',  ( 0.000000000000000000, 0.000000000000000000, 0.000000000000000000 ) ) ;
#46 = STYLED_ITEM ( 'NONE', ( #8 ), #11 ) ;
#47 = CIRCLE ( 'NONE', #68, 20.00000000000000000 ) ;
#48 = DIRECTION ( 'NONE',  ( 0.000000000000000000, 0.000000000000000000, 1.000000000000000000 ) ) ;
#49 = FILL_AREA_STYLE ('',( #50 ) ) ;
#50 = FILL_AREA_STYLE_COLOUR ( '', #26 ) ;
#51 = UNCERTAINTY_MEASURE_WITH_UNIT (LENGTH_MEASURE( 1.000000000000000082E-05 ), #39, 'distance_accuracy_value', 'NONE');
#52 = APPLICATION_PROTOCOL_DEFINITION ( 'draft international standard', 'automotive_design', 1998, #120 ) ;
#53 = FACE_BOUND ( 'NONE', #131, .T. ) ;
#54 = CARTESIAN_POINT ( 'NONE',  ( 0.000000000000000000, 0.000000000000000000, -3000.000000000000000 ) ) ;
#55 = AXIS2_PLACEMENT_3D ( 'NONE', #95, #14, #115 ) ;
#56 = CARTESIAN_POINT ( 'NONE',  ( 20.00000000000000000, 0.000000000000000000, -3000.000000000000000 ) ) ;
#57 = CARTESIAN_POINT ( 'NONE',  ( 0.000000000000000000, 0.000000000000000000, 0.000000000000000000 ) ) ;
#58 = FACE_BOUND ( 'NONE', #27, .T. ) ;
#59 =( NAMED_UNIT ( * ) SI_UNIT ( $, .STERADIAN. ) SOLID_ANGLE_UNIT ( ) );
#60 = PRODUCT_CONTEXT ( 'NONE', #7, 'mechanical' ) ;
#61 = CIRCLE ( 'NONE', #66, 24.00000000000000355 ) ;
#62 = SHAPE_DEFINITION_REPRESENTATION ( #88, #11 ) ;
#63 = VERTEX_POINT ( 'NONE', #130 ) ;
#64 = EDGE_LOOP ( 'NONE', ( #91 ) ) ;
#65 = PRODUCT_DEFINITION_FORMATION_WITH_SPECIFIED_SOURCE ( 'ANY', '', #109, .NOT_KNOWN. ) ;
#66 = AXIS2_PLACEMENT_3D ( 'NONE', #45, #111, #107 ) ;
#67 = DIRECTION ( 'NONE',  ( 0.000000000000000000, 0.000000000000000000, 1.000000000000000000 ) ) ;
#68 = AXIS2_PLACEMENT_3D ( 'NONE', #35, #69, #106 ) ;
#69 = DIRECTION ( 'NONE',  ( 0.000000000000000000, 0.000000000000000000, 1.000000000000000000 ) ) ;
#70 =( NAMED_UNIT ( * ) SI_UNIT ( $, .STERADIAN. ) SOLID_ANGLE_UNIT ( ) );
#71 = EDGE_CURVE ( 'NONE', #63, #63, #61, .T. ) ;
#72 = MECHANICAL_DESIGN_GEOMETRIC_PRESENTATION_REPRESENTATION (  '', ( #118 ), #97 ) ;
#73 = ORIENTED_EDGE ( 'NONE', *, *, #22, .T. ) ;
#74 = PLANE ( 'NONE',  #113 ) ;
#75 = CYLINDRICAL_SURFACE ( 'NONE', #90, 20.00000000000000000 ) ;
#76 = FACE_OUTER_BOUND ( 'NONE', #121, .T. ) ;
#77 = DIRECTION ( 'NONE',  ( 1.000000000000000000, 0.000000000000000000, 0.000000000000000000 ) ) ;
#78 = PRESENTATION_STYLE_ASSIGNMENT (( #34 ) ) ;
#79 = PRODUCT_DEFINITION_CONTEXT ( 'detailed design', #120, 'design' ) ;
#80 = CARTESIAN_POINT ( 'NONE',  ( 24.00000000000000355, 0.000000000000000000, -3000.000000000000000 ) ) ;
#81 = PRESENTATION_LAYER_ASSIGNMENT (  '', '', ( #46 ) ) ;
#82 = ORIENTED_EDGE ( 'NONE', *, *, #124, .T. ) ;
#83 = PLANE ( 'NONE',  #12 ) ;
#84 =( GEOMETRIC_REPRESENTATION_CONTEXT ( 3 ) GLOBAL_UNCERTAINTY_ASSIGNED_CONTEXT ( ( #51 ) ) GLOBAL_UNIT_ASSIGNED_CONTEXT ( ( #39, #38, #59 ) ) REPRESENTATION_CONTEXT ( 'NONE', 'WORKASPACE' ) );
#85 = COLOUR_RGB ( '',0.7529411764705882248, 0.7529411764705882248, 0.7529411764705882248 ) ;
#86 = SURFACE_STYLE_FILL_AREA ( #2 ) ;
#87 = SURFACE_SIDE_STYLE ('',( #127 ) ) ;
#88 = PRODUCT_DEFINITION_SHAPE ( 'NONE', 'NONE',  #134 ) ;
#89 = ADVANCED_FACE ( 'NONE', ( #29, #15 ), #75, .F. ) ;
#90 = AXIS2_PLACEMENT_3D ( 'NONE', #3, #112, #122 ) ;
#91 = ORIENTED_EDGE ( 'NONE', *, *, #41, .T. ) ;
#92 = EDGE_LOOP ( 'NONE', ( #103 ) ) ;
#93 = CARTESIAN_POINT ( 'NONE',  ( 20.00000000000000000, 0.000000000000000000, 0.000000000000000000 ) ) ;
#94 = DIRECTION ( 'NONE',  ( 0.000000000000000000, 0.000000000000000000, 1.000000000000000000 ) ) ;
#95 = CARTESIAN_POINT ( 'NONE',  ( 0.000000000000000000, 0.000000000000000000, -3000.000000000000000 ) ) ;
#96 = DIRECTION ( 'NONE',  ( 1.000000000000000000, 0.000000000000000000, 0.000000000000000000 ) ) ;
#97 =( GEOMETRIC_REPRESENTATION_CONTEXT ( 3 ) GLOBAL_UNCERTAINTY_ASSIGNED_CONTEXT ( ( #101 ) ) GLOBAL_UNIT_ASSIGNED_CONTEXT ( ( #23, #44, #70 ) ) REPRESENTATION_CONTEXT ( 'NONE', 'WORKASPACE' ) );
#98 = VERTEX_POINT ( 'NONE', #93 ) ;
#99 = DIRECTION ( 'NONE',  ( 0.000000000000000000, 0.000000000000000000, 1.000000000000000000 ) ) ;
#100 = CIRCLE ( 'NONE', #33, 24.00000000000000355 ) ;
#101 = UNCERTAINTY_MEASURE_WITH_UNIT (LENGTH_MEASURE( 1.000000000000000082E-05 ), #23, 'distance_accuracy_value', 'NONE');
#102 = ORIENTED_EDGE ( 'NONE', *, *, #71, .F. ) ;
#103 = ORIENTED_EDGE ( 'NONE', *, *, #22, .F. ) ;
#104 = MECHANICAL_DESIGN_GEOMETRIC_PRESENTATION_REPRESENTATION (  '', ( #46 ), #84 ) ;
#105 = CLOSED_SHELL ( 'NONE', ( #32, #16, #110, #89 ) ) ;
#106 = DIRECTION ( 'NONE',  ( 1.000000000000000000, 0.000000000000000000, 0.000000000000000000 ) ) ;
#107 = DIRECTION ( 'NONE',  ( 1.000000000000000000, 0.000000000000000000, 0.000000000000000000 ) ) ;
#108 = PRODUCT_RELATED_PRODUCT_CATEGORY ( 'part', '', ( #109 ) ) ;
#109 = PRODUCT ( '10094219', '10094219', '', ( #60 ) ) ;
#110 = ADVANCED_FACE ( 'NONE', ( #58, #31 ), #83, .T. ) ;
#111 = DIRECTION ( 'NONE',  ( 0.000000000000000000, 0.000000000000000000, 1.000000000000000000 ) ) ;
#112 = DIRECTION ( 'NONE',  ( 0.000000000000000000, 0.000000000000000000, 1.000000000000000000 ) ) ;
#113 = AXIS2_PLACEMENT_3D ( 'NONE', #54, #94, #30 ) ;
#114 = SURFACE_SIDE_STYLE ('',( #86 ) ) ;
#115 = DIRECTION ( 'NONE',  ( 1.000000000000000000, 0.000000000000000000, 0.000000000000000000 ) ) ;
#116 =( NAMED_UNIT ( * ) SI_UNIT ( $, .STERADIAN. ) SOLID_ANGLE_UNIT ( ) );
#117 = AXIS2_PLACEMENT_3D ( 'NONE', #17, #99, #129 ) ;
#118 = STYLED_ITEM ( 'NONE', ( #78 ), #133 ) ;
#119 = ORIENTED_EDGE ( 'NONE', *, *, #41, .F. ) ;
#120 = APPLICATION_CONTEXT ( 'automotive_design' ) ;
#121 = EDGE_LOOP ( 'NONE', ( #102 ) ) ;
#122 = DIRECTION ( 'NONE',  ( 1.000000000000000000, 0.000000000000000000, 0.000000000000000000 ) ) ;
#123 = VERTEX_POINT ( 'NONE', #56 ) ;
#124 = EDGE_CURVE ( 'NONE', #18, #18, #100, .T. ) ;
#125 = CARTESIAN_POINT ( 'NONE',  ( 0.000000000000000000, 0.000000000000000000, -3000.000000000000000 ) ) ;
#126 = DIRECTION ( 'NONE',  ( 1.000000000000000000, 0.000000000000000000, -0.000000000000000000 ) ) ;
#127 = SURFACE_STYLE_FILL_AREA ( #49 ) ;
#128 = UNCERTAINTY_MEASURE_WITH_UNIT (LENGTH_MEASURE( 1.000000000000000082E-05 ), #5, 'distance_accuracy_value', 'NONE');
#129 = DIRECTION ( 'NONE',  ( 1.000000000000000000, 0.000000000000000000, 0.000000000000000000 ) ) ;
#130 = CARTESIAN_POINT ( 'NONE',  ( 24.00000000000000355, 0.000000000000000000, 0.000000000000000000 ) ) ;
#131 = EDGE_LOOP ( 'NONE', ( #73 ) ) ;
#132 = FACE_OUTER_BOUND ( 'NONE', #40, .T. ) ;
#133 = MANIFOLD_SOLID_BREP ( 'Linear austragen1', #105 ) ;
#134 = PRODUCT_DEFINITION ( 'UNKNOWN', '', #65, #79 ) ;
ENDSEC;
END-ISO-10303-21;
