ISO-10303-21;
HEADER;
FILE_DESCRIPTION (( 'STEP AP214' ),
    '1' );
FILE_NAME ('10094218.STEP',
    '2022-04-20T12:17:03',
    ( 'Ifina' ),
    ( 'Ifina' ),
    'SwSTEP 2.0',
    'SolidWorks 2020',
    '' );
FILE_SCHEMA (( 'AUTOMOTIVE_DESIGN' ));
ENDSEC;

DATA;
#1 = ORIENTED_EDGE ( 'NONE', *, *, #50, .T. ) ;
#2 = CIRCLE ( 'NONE', #10, 24.00000000000000355 ) ;
#3 = DIRECTION ( 'NONE',  ( 0.000000000000000000, 0.000000000000000000, 1.000000000000000000 ) ) ;
#4 = CARTESIAN_POINT ( 'NONE',  ( 0.000000000000000000, 0.000000000000000000, -2000.000000000000000 ) ) ;
#5 = COLOUR_RGB ( '',0.7529411764705882248, 0.7529411764705882248, 0.7529411764705882248 ) ;
#6 = EDGE_CURVE ( 'NONE', #22, #22, #21, .T. ) ;
#7 = SURFACE_STYLE_FILL_AREA ( #55 ) ;
#8 =( NAMED_UNIT ( * ) SI_UNIT ( $, .STERADIAN. ) SOLID_ANGLE_UNIT ( ) );
#9 = STYLED_ITEM ( 'NONE', ( #54 ), #128 ) ;
#10 = AXIS2_PLACEMENT_3D ( 'NONE', #30, #71, #112 ) ;
#11 = EDGE_LOOP ( 'NONE', ( #14 ) ) ;
#12 = EDGE_LOOP ( 'NONE', ( #1 ) ) ;
#13 = SURFACE_SIDE_STYLE ('',( #52 ) ) ;
#14 = ORIENTED_EDGE ( 'NONE', *, *, #6, .F. ) ;
#15 = ADVANCED_FACE ( 'NONE', ( #88, #129 ), #45, .T. ) ;
#16 = PRODUCT_DEFINITION_FORMATION_WITH_SPECIFIED_SOURCE ( 'ANY', '', #84, .NOT_KNOWN. ) ;
#17 = EDGE_LOOP ( 'NONE', ( #61 ) ) ;
#18 = DIRECTION ( 'NONE',  ( 1.000000000000000000, 0.000000000000000000, 0.000000000000000000 ) ) ;
#19 = ORIENTED_EDGE ( 'NONE', *, *, #92, .F. ) ;
#20 = FACE_BOUND ( 'NONE', #11, .T. ) ;
#21 = CIRCLE ( 'NONE', #66, 20.00000000000000000 ) ;
#22 = VERTEX_POINT ( 'NONE', #118 ) ;
#23 =( NAMED_UNIT ( * ) PLANE_ANGLE_UNIT ( ) SI_UNIT ( $, .RADIAN. ) );
#24 = UNCERTAINTY_MEASURE_WITH_UNIT (LENGTH_MEASURE( 1.000000000000000082E-05 ), #65, 'distance_accuracy_value', 'NONE');
#25 = MECHANICAL_DESIGN_GEOMETRIC_PRESENTATION_REPRESENTATION (  '', ( #9 ), #49 ) ;
#26 = MANIFOLD_SOLID_BREP ( 'Linear austragen1', #58 ) ;
#27 = AXIS2_PLACEMENT_3D ( 'NONE', #36, #94, #86 ) ;
#28 = PRESENTATION_STYLE_ASSIGNMENT (( #43 ) ) ;
#29 = FACE_OUTER_BOUND ( 'NONE', #39, .T. ) ;
#30 = CARTESIAN_POINT ( 'NONE',  ( 0.000000000000000000, 0.000000000000000000, 0.000000000000000000 ) ) ;
#31 = PRODUCT_DEFINITION_SHAPE ( 'NONE', 'NONE',  #115 ) ;
#32 = CARTESIAN_POINT ( 'NONE',  ( 0.000000000000000000, 0.000000000000000000, -2000.000000000000000 ) ) ;
#33 = DIRECTION ( 'NONE',  ( 0.000000000000000000, 0.000000000000000000, 1.000000000000000000 ) ) ;
#34 = FACE_OUTER_BOUND ( 'NONE', #17, .T. ) ;
#35 = APPLICATION_PROTOCOL_DEFINITION ( 'draft international standard', 'automotive_design', 1998, #57 ) ;
#36 = CARTESIAN_POINT ( 'NONE',  ( 0.000000000000000000, 0.000000000000000000, -2000.000000000000000 ) ) ;
#37 = APPLICATION_CONTEXT ( 'automotive_design' ) ;
#38 = AXIS2_PLACEMENT_3D ( 'NONE', #124, #77, #76 ) ;
#39 = EDGE_LOOP ( 'NONE', ( #60 ) ) ;
#40 = MECHANICAL_DESIGN_GEOMETRIC_PRESENTATION_REPRESENTATION (  '', ( #131 ), #69 ) ;
#41 = ORIENTED_EDGE ( 'NONE', *, *, #6, .T. ) ;
#42 = CARTESIAN_POINT ( 'NONE',  ( 0.000000000000000000, 0.000000000000000000, -2000.000000000000000 ) ) ;
#43 = SURFACE_STYLE_USAGE ( .BOTH. , #13 ) ;
#44 = FILL_AREA_STYLE_COLOUR ( '', #114 ) ;
#45 = CYLINDRICAL_SURFACE ( 'NONE', #96, 24.00000000000000355 ) ;
#46 = SHAPE_DEFINITION_REPRESENTATION ( #31, #128 ) ;
#47 =( NAMED_UNIT ( * ) PLANE_ANGLE_UNIT ( ) SI_UNIT ( $, .RADIAN. ) );
#48 =( NAMED_UNIT ( * ) SI_UNIT ( $, .STERADIAN. ) SOLID_ANGLE_UNIT ( ) );
#49 =( GEOMETRIC_REPRESENTATION_CONTEXT ( 3 ) GLOBAL_UNCERTAINTY_ASSIGNED_CONTEXT ( ( #134 ) ) GLOBAL_UNIT_ASSIGNED_CONTEXT ( ( #93, #23, #48 ) ) REPRESENTATION_CONTEXT ( 'NONE', 'WORKASPACE' ) );
#50 = EDGE_CURVE ( 'NONE', #73, #73, #85, .T. ) ;
#51 = PRESENTATION_LAYER_ASSIGNMENT (  '', '', ( #131 ) ) ;
#52 = SURFACE_STYLE_FILL_AREA ( #80 ) ;
#53 = SURFACE_STYLE_USAGE ( .BOTH. , #63 ) ;
#54 = PRESENTATION_STYLE_ASSIGNMENT (( #53 ) ) ;
#55 = FILL_AREA_STYLE ('',( #104 ) ) ;
#56 = AXIS2_PLACEMENT_3D ( 'NONE', #32, #90, #91 ) ;
#57 = APPLICATION_CONTEXT ( 'automotive_design' ) ;
#58 = CLOSED_SHELL ( 'NONE', ( #15, #133, #101, #67 ) ) ;
#59 =( LENGTH_UNIT ( ) NAMED_UNIT ( * ) SI_UNIT ( .MILLI., .METRE. ) );
#60 = ORIENTED_EDGE ( 'NONE', *, *, #89, .F. ) ;
#61 = ORIENTED_EDGE ( 'NONE', *, *, #50, .F. ) ;
#62 = FACE_OUTER_BOUND ( 'NONE', #110, .T. ) ;
#63 = SURFACE_SIDE_STYLE ('',( #7 ) ) ;
#64 = CARTESIAN_POINT ( 'NONE',  ( 24.00000000000000355, 0.000000000000000000, 0.000000000000000000 ) ) ;
#65 =( LENGTH_UNIT ( ) NAMED_UNIT ( * ) SI_UNIT ( .MILLI., .METRE. ) );
#66 = AXIS2_PLACEMENT_3D ( 'NONE', #99, #3, #97 ) ;
#67 = ADVANCED_FACE ( 'NONE', ( #29, #130 ), #70, .F. ) ;
#68 =( GEOMETRIC_REPRESENTATION_CONTEXT ( 3 ) GLOBAL_UNCERTAINTY_ASSIGNED_CONTEXT ( ( #24 ) ) GLOBAL_UNIT_ASSIGNED_CONTEXT ( ( #65, #47, #8 ) ) REPRESENTATION_CONTEXT ( 'NONE', 'WORKASPACE' ) );
#69 =( GEOMETRIC_REPRESENTATION_CONTEXT ( 3 ) GLOBAL_UNCERTAINTY_ASSIGNED_CONTEXT ( ( #87 ) ) GLOBAL_UNIT_ASSIGNED_CONTEXT ( ( #59, #100, #120 ) ) REPRESENTATION_CONTEXT ( 'NONE', 'WORKASPACE' ) );
#70 = CYLINDRICAL_SURFACE ( 'NONE', #74, 20.00000000000000000 ) ;
#71 = DIRECTION ( 'NONE',  ( 0.000000000000000000, 0.000000000000000000, 1.000000000000000000 ) ) ;
#72 = DIRECTION ( 'NONE',  ( 1.000000000000000000, 0.000000000000000000, -0.000000000000000000 ) ) ;
#73 = VERTEX_POINT ( 'NONE', #117 ) ;
#74 = AXIS2_PLACEMENT_3D ( 'NONE', #42, #111, #18 ) ;
#75 = PRODUCT_DEFINITION_CONTEXT ( 'detailed design', #57, 'design' ) ;
#76 = DIRECTION ( 'NONE',  ( 1.000000000000000000, 0.000000000000000000, 0.000000000000000000 ) ) ;
#77 = DIRECTION ( 'NONE',  ( 0.000000000000000000, 0.000000000000000000, 1.000000000000000000 ) ) ;
#78 = EDGE_LOOP ( 'NONE', ( #109 ) ) ;
#79 = EDGE_LOOP ( 'NONE', ( #19 ) ) ;
#80 = FILL_AREA_STYLE ('',( #44 ) ) ;
#81 = DIRECTION ( 'NONE',  ( 0.000000000000000000, 0.000000000000000000, 1.000000000000000000 ) ) ;
#82 = DIRECTION ( 'NONE',  ( 0.000000000000000000, 0.000000000000000000, 1.000000000000000000 ) ) ;
#83 = PLANE ( 'NONE',  #126 ) ;
#84 = PRODUCT ( '10094218', '10094218', '', ( #116 ) ) ;
#85 = CIRCLE ( 'NONE', #56, 24.00000000000000355 ) ;
#86 = DIRECTION ( 'NONE',  ( 1.000000000000000000, 0.000000000000000000, -0.000000000000000000 ) ) ;
#87 = UNCERTAINTY_MEASURE_WITH_UNIT (LENGTH_MEASURE( 1.000000000000000082E-05 ), #59, 'distance_accuracy_value', 'NONE');
#88 = FACE_OUTER_BOUND ( 'NONE', #12, .T. ) ;
#89 = EDGE_CURVE ( 'NONE', #95, #95, #98, .T. ) ;
#90 = DIRECTION ( 'NONE',  ( 0.000000000000000000, 0.000000000000000000, 1.000000000000000000 ) ) ;
#91 = DIRECTION ( 'NONE',  ( 1.000000000000000000, 0.000000000000000000, 0.000000000000000000 ) ) ;
#92 = EDGE_CURVE ( 'NONE', #102, #102, #2, .T. ) ;
#93 =( LENGTH_UNIT ( ) NAMED_UNIT ( * ) SI_UNIT ( .MILLI., .METRE. ) );
#94 = DIRECTION ( 'NONE',  ( 0.000000000000000000, 0.000000000000000000, 1.000000000000000000 ) ) ;
#95 = VERTEX_POINT ( 'NONE', #125 ) ;
#96 = AXIS2_PLACEMENT_3D ( 'NONE', #132, #82, #122 ) ;
#97 = DIRECTION ( 'NONE',  ( 1.000000000000000000, 0.000000000000000000, 0.000000000000000000 ) ) ;
#98 = CIRCLE ( 'NONE', #119, 20.00000000000000000 ) ;
#99 = CARTESIAN_POINT ( 'NONE',  ( 0.000000000000000000, 0.000000000000000000, 0.000000000000000000 ) ) ;
#100 =( NAMED_UNIT ( * ) PLANE_ANGLE_UNIT ( ) SI_UNIT ( $, .RADIAN. ) );
#101 = ADVANCED_FACE ( 'NONE', ( #20, #62 ), #83, .T. ) ;
#102 = VERTEX_POINT ( 'NONE', #64 ) ;
#103 = PLANE ( 'NONE',  #27 ) ;
#104 = FILL_AREA_STYLE_COLOUR ( '', #5 ) ;
#105 = PRESENTATION_LAYER_ASSIGNMENT (  '', '', ( #9 ) ) ;
#106 = ORIENTED_EDGE ( 'NONE', *, *, #92, .T. ) ;
#107 = PRODUCT_RELATED_PRODUCT_CATEGORY ( 'part', '', ( #84 ) ) ;
#108 = EDGE_LOOP ( 'NONE', ( #41 ) ) ;
#109 = ORIENTED_EDGE ( 'NONE', *, *, #89, .T. ) ;
#110 = EDGE_LOOP ( 'NONE', ( #106 ) ) ;
#111 = DIRECTION ( 'NONE',  ( 0.000000000000000000, 0.000000000000000000, 1.000000000000000000 ) ) ;
#112 = DIRECTION ( 'NONE',  ( 1.000000000000000000, 0.000000000000000000, 0.000000000000000000 ) ) ;
#113 = FACE_BOUND ( 'NONE', #78, .T. ) ;
#114 = COLOUR_RGB ( '',0.7529411764705882248, 0.7529411764705882248, 0.7529411764705882248 ) ;
#115 = PRODUCT_DEFINITION ( 'UNKNOWN', '', #16, #75 ) ;
#116 = PRODUCT_CONTEXT ( 'NONE', #37, 'mechanical' ) ;
#117 = CARTESIAN_POINT ( 'NONE',  ( 24.00000000000000355, 0.000000000000000000, -2000.000000000000000 ) ) ;
#118 = CARTESIAN_POINT ( 'NONE',  ( 20.00000000000000000, 0.000000000000000000, 0.000000000000000000 ) ) ;
#119 = AXIS2_PLACEMENT_3D ( 'NONE', #4, #81, #121 ) ;
#120 =( NAMED_UNIT ( * ) SI_UNIT ( $, .STERADIAN. ) SOLID_ANGLE_UNIT ( ) );
#121 = DIRECTION ( 'NONE',  ( 1.000000000000000000, 0.000000000000000000, 0.000000000000000000 ) ) ;
#122 = DIRECTION ( 'NONE',  ( 1.000000000000000000, 0.000000000000000000, 0.000000000000000000 ) ) ;
#123 = CARTESIAN_POINT ( 'NONE',  ( 0.000000000000000000, 0.000000000000000000, 0.000000000000000000 ) ) ;
#124 = CARTESIAN_POINT ( 'NONE',  ( 0.000000000000000000, 0.000000000000000000, 0.000000000000000000 ) ) ;
#125 = CARTESIAN_POINT ( 'NONE',  ( 20.00000000000000000, 0.000000000000000000, -2000.000000000000000 ) ) ;
#126 = AXIS2_PLACEMENT_3D ( 'NONE', #123, #33, #72 ) ;
#127 = APPLICATION_PROTOCOL_DEFINITION ( 'draft international standard', 'automotive_design', 1998, #37 ) ;
#128 = ADVANCED_BREP_SHAPE_REPRESENTATION ( '10094218', ( #26, #38 ), #68 ) ;
#129 = FACE_OUTER_BOUND ( 'NONE', #79, .T. ) ;
#130 = FACE_OUTER_BOUND ( 'NONE', #108, .T. ) ;
#131 = STYLED_ITEM ( 'NONE', ( #28 ), #26 ) ;
#132 = CARTESIAN_POINT ( 'NONE',  ( 0.000000000000000000, 0.000000000000000000, -2000.000000000000000 ) ) ;
#133 = ADVANCED_FACE ( 'NONE', ( #113, #34 ), #103, .F. ) ;
#134 = UNCERTAINTY_MEASURE_WITH_UNIT (LENGTH_MEASURE( 1.000000000000000082E-05 ), #93, 'distance_accuracy_value', 'NONE');
ENDSEC;
END-ISO-10303-21;
