ISO-10303-21;
HEADER;
FILE_DESCRIPTION (( 'STEP AP214' ),
    '1' );
FILE_NAME ('10094217.STEP',
    '2022-04-20T12:16:16',
    ( 'Ifina' ),
    ( 'Ifina' ),
    'SwSTEP 2.0',
    'SolidWorks 2020',
    '' );
FILE_SCHEMA (( 'AUTOMOTIVE_DESIGN' ));
ENDSEC;

DATA;
#1 = SHAPE_DEFINITION_REPRESENTATION ( #38, #42 ) ;
#2 = CARTESIAN_POINT ( 'NONE',  ( 24.00000000000000355, 0.000000000000000000, 0.000000000000000000 ) ) ;
#3 = EDGE_LOOP ( 'NONE', ( #46 ) ) ;
#4 = MECHANICAL_DESIGN_GEOMETRIC_PRESENTATION_REPRESENTATION (  '', ( #20 ), #54 ) ;
#5 = PRESENTATION_LAYER_ASSIGNMENT (  '', '', ( #20 ) ) ;
#6 = ADVANCED_FACE ( 'NONE', ( #64, #108 ), #55, .F. ) ;
#7 = DIRECTION ( 'NONE',  ( 1.000000000000000000, 0.000000000000000000, 0.000000000000000000 ) ) ;
#8 = AXIS2_PLACEMENT_3D ( 'NONE', #40, #41, #67 ) ;
#9 = AXIS2_PLACEMENT_3D ( 'NONE', #102, #114, #22 ) ;
#10 = VERTEX_POINT ( 'NONE', #18 ) ;
#11 = PRODUCT_DEFINITION ( 'UNKNOWN', '', #111, #77 ) ;
#12 = VERTEX_POINT ( 'NONE', #2 ) ;
#13 = DIRECTION ( 'NONE',  ( 1.000000000000000000, 0.000000000000000000, 0.000000000000000000 ) ) ;
#14 = AXIS2_PLACEMENT_3D ( 'NONE', #70, #26, #13 ) ;
#15 = CIRCLE ( 'NONE', #126, 20.00000000000000000 ) ;
#16 = ADVANCED_FACE ( 'NONE', ( #88, #59 ), #50, .T. ) ;
#17 =( NAMED_UNIT ( * ) PLANE_ANGLE_UNIT ( ) SI_UNIT ( $, .RADIAN. ) );
#18 = CARTESIAN_POINT ( 'NONE',  ( 20.00000000000000000, 0.000000000000000000, 0.000000000000000000 ) ) ;
#19 = APPLICATION_PROTOCOL_DEFINITION ( 'draft international standard', 'automotive_design', 1998, #29 ) ;
#20 = STYLED_ITEM ( 'NONE', ( #110 ), #78 ) ;
#21 = EDGE_CURVE ( 'NONE', #91, #91, #15, .T. ) ;
#22 = DIRECTION ( 'NONE',  ( 1.000000000000000000, 0.000000000000000000, 0.000000000000000000 ) ) ;
#23 =( LENGTH_UNIT ( ) NAMED_UNIT ( * ) SI_UNIT ( .MILLI., .METRE. ) );
#24 = EDGE_LOOP ( 'NONE', ( #109 ) ) ;
#25 =( GEOMETRIC_REPRESENTATION_CONTEXT ( 3 ) GLOBAL_UNCERTAINTY_ASSIGNED_CONTEXT ( ( #107 ) ) GLOBAL_UNIT_ASSIGNED_CONTEXT ( ( #115, #100, #51 ) ) REPRESENTATION_CONTEXT ( 'NONE', 'WORKASPACE' ) );
#26 = DIRECTION ( 'NONE',  ( 0.000000000000000000, 0.000000000000000000, 1.000000000000000000 ) ) ;
#27 = STYLED_ITEM ( 'NONE', ( #103 ), #42 ) ;
#28 = FACE_BOUND ( 'NONE', #96, .T. ) ;
#29 = APPLICATION_CONTEXT ( 'automotive_design' ) ;
#30 = FILL_AREA_STYLE_COLOUR ( '', #119 ) ;
#31 = FILL_AREA_STYLE ('',( #123 ) ) ;
#32 = CARTESIAN_POINT ( 'NONE',  ( 0.000000000000000000, 0.000000000000000000, 0.000000000000000000 ) ) ;
#33 = VERTEX_POINT ( 'NONE', #89 ) ;
#34 = CIRCLE ( 'NONE', #9, 20.00000000000000000 ) ;
#35 = ORIENTED_EDGE ( 'NONE', *, *, #21, .T. ) ;
#36 = UNCERTAINTY_MEASURE_WITH_UNIT (LENGTH_MEASURE( 1.000000000000000082E-05 ), #58, 'distance_accuracy_value', 'NONE');
#37 = SURFACE_SIDE_STYLE ('',( #66 ) ) ;
#38 = PRODUCT_DEFINITION_SHAPE ( 'NONE', 'NONE',  #11 ) ;
#39 = PLANE ( 'NONE',  #8 ) ;
#40 = CARTESIAN_POINT ( 'NONE',  ( 0.000000000000000000, 0.000000000000000000, 0.000000000000000000 ) ) ;
#41 = DIRECTION ( 'NONE',  ( 0.000000000000000000, 0.000000000000000000, 1.000000000000000000 ) ) ;
#42 = ADVANCED_BREP_SHAPE_REPRESENTATION ( '10094217', ( #78, #120 ), #25 ) ;
#43 = SURFACE_SIDE_STYLE ('',( #44 ) ) ;
#44 = SURFACE_STYLE_FILL_AREA ( #31 ) ;
#45 = EDGE_LOOP ( 'NONE', ( #35 ) ) ;
#46 = ORIENTED_EDGE ( 'NONE', *, *, #81, .T. ) ;
#47 = AXIS2_PLACEMENT_3D ( 'NONE', #93, #86, #7 ) ;
#48 = PRODUCT ( '10094217', '10094217', '', ( #61 ) ) ;
#49 = FACE_OUTER_BOUND ( 'NONE', #3, .T. ) ;
#50 = CYLINDRICAL_SURFACE ( 'NONE', #73, 24.00000000000000355 ) ;
#51 =( NAMED_UNIT ( * ) SI_UNIT ( $, .STERADIAN. ) SOLID_ANGLE_UNIT ( ) );
#52 = FACE_OUTER_BOUND ( 'NONE', #24, .T. ) ;
#53 = EDGE_LOOP ( 'NONE', ( #56 ) ) ;
#54 =( GEOMETRIC_REPRESENTATION_CONTEXT ( 3 ) GLOBAL_UNCERTAINTY_ASSIGNED_CONTEXT ( ( #36 ) ) GLOBAL_UNIT_ASSIGNED_CONTEXT ( ( #58, #17, #98 ) ) REPRESENTATION_CONTEXT ( 'NONE', 'WORKASPACE' ) );
#55 = CYLINDRICAL_SURFACE ( 'NONE', #47, 20.00000000000000000 ) ;
#56 = ORIENTED_EDGE ( 'NONE', *, *, #81, .F. ) ;
#57 = DIRECTION ( 'NONE',  ( 0.000000000000000000, 0.000000000000000000, 1.000000000000000000 ) ) ;
#58 =( LENGTH_UNIT ( ) NAMED_UNIT ( * ) SI_UNIT ( .MILLI., .METRE. ) );
#59 = FACE_OUTER_BOUND ( 'NONE', #53, .T. ) ;
#60 = APPLICATION_CONTEXT ( 'automotive_design' ) ;
#61 = PRODUCT_CONTEXT ( 'NONE', #29, 'mechanical' ) ;
#62 = DIRECTION ( 'NONE',  ( 0.000000000000000000, 0.000000000000000000, 1.000000000000000000 ) ) ;
#63 =( NAMED_UNIT ( * ) SI_UNIT ( $, .STERADIAN. ) SOLID_ANGLE_UNIT ( ) );
#64 = FACE_OUTER_BOUND ( 'NONE', #92, .T. ) ;
#65 = ORIENTED_EDGE ( 'NONE', *, *, #21, .F. ) ;
#66 = SURFACE_STYLE_FILL_AREA ( #112 ) ;
#67 = DIRECTION ( 'NONE',  ( 1.000000000000000000, 0.000000000000000000, -0.000000000000000000 ) ) ;
#68 = ADVANCED_FACE ( 'NONE', ( #28, #49 ), #39, .T. ) ;
#69 = SURFACE_STYLE_USAGE ( .BOTH. , #37 ) ;
#70 = CARTESIAN_POINT ( 'NONE',  ( 0.000000000000000000, 0.000000000000000000, 0.000000000000000000 ) ) ;
#71 = DIRECTION ( 'NONE',  ( 1.000000000000000000, 0.000000000000000000, 0.000000000000000000 ) ) ;
#72 = DIRECTION ( 'NONE',  ( 1.000000000000000000, 0.000000000000000000, 0.000000000000000000 ) ) ;
#73 = AXIS2_PLACEMENT_3D ( 'NONE', #99, #87, #133 ) ;
#74 = EDGE_CURVE ( 'NONE', #33, #33, #83, .T. ) ;
#75 = APPLICATION_PROTOCOL_DEFINITION ( 'draft international standard', 'automotive_design', 1998, #60 ) ;
#76 = CLOSED_SHELL ( 'NONE', ( #16, #131, #68, #6 ) ) ;
#77 = PRODUCT_DEFINITION_CONTEXT ( 'detailed design', #60, 'design' ) ;
#78 = MANIFOLD_SOLID_BREP ( 'Linear austragen1', #76 ) ;
#79 = CARTESIAN_POINT ( 'NONE',  ( 0.000000000000000000, 0.000000000000000000, -1000.000000000000000 ) ) ;
#80 = DIRECTION ( 'NONE',  ( 0.000000000000000000, 0.000000000000000000, 1.000000000000000000 ) ) ;
#81 = EDGE_CURVE ( 'NONE', #12, #12, #129, .T. ) ;
#82 = CARTESIAN_POINT ( 'NONE',  ( 20.00000000000000000, 0.000000000000000000, -1000.000000000000000 ) ) ;
#83 = CIRCLE ( 'NONE', #101, 24.00000000000000355 ) ;
#84 =( GEOMETRIC_REPRESENTATION_CONTEXT ( 3 ) GLOBAL_UNCERTAINTY_ASSIGNED_CONTEXT ( ( #95 ) ) GLOBAL_UNIT_ASSIGNED_CONTEXT ( ( #23, #124, #63 ) ) REPRESENTATION_CONTEXT ( 'NONE', 'WORKASPACE' ) );
#85 = ORIENTED_EDGE ( 'NONE', *, *, #121, .T. ) ;
#86 = DIRECTION ( 'NONE',  ( 0.000000000000000000, 0.000000000000000000, 1.000000000000000000 ) ) ;
#87 = DIRECTION ( 'NONE',  ( 0.000000000000000000, 0.000000000000000000, 1.000000000000000000 ) ) ;
#88 = FACE_OUTER_BOUND ( 'NONE', #106, .T. ) ;
#89 = CARTESIAN_POINT ( 'NONE',  ( 24.00000000000000355, 0.000000000000000000, -1000.000000000000000 ) ) ;
#90 = DIRECTION ( 'NONE',  ( 0.000000000000000000, 0.000000000000000000, 1.000000000000000000 ) ) ;
#91 = VERTEX_POINT ( 'NONE', #82 ) ;
#92 = EDGE_LOOP ( 'NONE', ( #65 ) ) ;
#93 = CARTESIAN_POINT ( 'NONE',  ( 0.000000000000000000, 0.000000000000000000, -1000.000000000000000 ) ) ;
#94 = PRODUCT_RELATED_PRODUCT_CATEGORY ( 'part', '', ( #48 ) ) ;
#95 = UNCERTAINTY_MEASURE_WITH_UNIT (LENGTH_MEASURE( 1.000000000000000082E-05 ), #23, 'distance_accuracy_value', 'NONE');
#96 = EDGE_LOOP ( 'NONE', ( #97 ) ) ;
#97 = ORIENTED_EDGE ( 'NONE', *, *, #121, .F. ) ;
#98 =( NAMED_UNIT ( * ) SI_UNIT ( $, .STERADIAN. ) SOLID_ANGLE_UNIT ( ) );
#99 = CARTESIAN_POINT ( 'NONE',  ( 0.000000000000000000, 0.000000000000000000, -1000.000000000000000 ) ) ;
#100 =( NAMED_UNIT ( * ) PLANE_ANGLE_UNIT ( ) SI_UNIT ( $, .RADIAN. ) );
#101 = AXIS2_PLACEMENT_3D ( 'NONE', #79, #80, #71 ) ;
#102 = CARTESIAN_POINT ( 'NONE',  ( 0.000000000000000000, 0.000000000000000000, 0.000000000000000000 ) ) ;
#103 = PRESENTATION_STYLE_ASSIGNMENT (( #116 ) ) ;
#104 = FACE_BOUND ( 'NONE', #45, .T. ) ;
#105 = DIRECTION ( 'NONE',  ( 1.000000000000000000, 0.000000000000000000, -0.000000000000000000 ) ) ;
#106 = EDGE_LOOP ( 'NONE', ( #118 ) ) ;
#107 = UNCERTAINTY_MEASURE_WITH_UNIT (LENGTH_MEASURE( 1.000000000000000082E-05 ), #115, 'distance_accuracy_value', 'NONE');
#108 = FACE_OUTER_BOUND ( 'NONE', #128, .T. ) ;
#109 = ORIENTED_EDGE ( 'NONE', *, *, #74, .F. ) ;
#110 = PRESENTATION_STYLE_ASSIGNMENT (( #69 ) ) ;
#111 = PRODUCT_DEFINITION_FORMATION_WITH_SPECIFIED_SOURCE ( 'ANY', '', #48, .NOT_KNOWN. ) ;
#112 = FILL_AREA_STYLE ('',( #30 ) ) ;
#113 = COLOUR_RGB ( '',0.7529411764705882248, 0.7529411764705882248, 0.7529411764705882248 ) ;
#114 = DIRECTION ( 'NONE',  ( 0.000000000000000000, 0.000000000000000000, 1.000000000000000000 ) ) ;
#115 =( LENGTH_UNIT ( ) NAMED_UNIT ( * ) SI_UNIT ( .MILLI., .METRE. ) );
#116 = SURFACE_STYLE_USAGE ( .BOTH. , #43 ) ;
#117 = PRESENTATION_LAYER_ASSIGNMENT (  '', '', ( #27 ) ) ;
#118 = ORIENTED_EDGE ( 'NONE', *, *, #74, .T. ) ;
#119 = COLOUR_RGB ( '',0.7529411764705882248, 0.7529411764705882248, 0.7529411764705882248 ) ;
#120 = AXIS2_PLACEMENT_3D ( 'NONE', #32, #90, #72 ) ;
#121 = EDGE_CURVE ( 'NONE', #10, #10, #34, .T. ) ;
#122 = AXIS2_PLACEMENT_3D ( 'NONE', #134, #62, #105 ) ;
#123 = FILL_AREA_STYLE_COLOUR ( '', #113 ) ;
#124 =( NAMED_UNIT ( * ) PLANE_ANGLE_UNIT ( ) SI_UNIT ( $, .RADIAN. ) );
#125 = PLANE ( 'NONE',  #122 ) ;
#126 = AXIS2_PLACEMENT_3D ( 'NONE', #132, #57, #130 ) ;
#127 = MECHANICAL_DESIGN_GEOMETRIC_PRESENTATION_REPRESENTATION (  '', ( #27 ), #84 ) ;
#128 = EDGE_LOOP ( 'NONE', ( #85 ) ) ;
#129 = CIRCLE ( 'NONE', #14, 24.00000000000000355 ) ;
#130 = DIRECTION ( 'NONE',  ( 1.000000000000000000, 0.000000000000000000, 0.000000000000000000 ) ) ;
#131 = ADVANCED_FACE ( 'NONE', ( #104, #52 ), #125, .F. ) ;
#132 = CARTESIAN_POINT ( 'NONE',  ( 0.000000000000000000, 0.000000000000000000, -1000.000000000000000 ) ) ;
#133 = DIRECTION ( 'NONE',  ( 1.000000000000000000, 0.000000000000000000, 0.000000000000000000 ) ) ;
#134 = CARTESIAN_POINT ( 'NONE',  ( 0.000000000000000000, 0.000000000000000000, -1000.000000000000000 ) ) ;
ENDSEC;
END-ISO-10303-21;
